PrimaNota.ru - самый крупный в мире бесплатный архив песенных текстов, аккордов, табулатур и нот


Ceremony - World Blue - таба, видео

Регистрация Запомнить меня
Войти через:  Facebook Google Twitter Vk Yandex Mail.ru

Ceremony - World Blue - таба, видео

Печатать
Просмотров: 80
World Blue


intro/outro
  (cut of the final C chord pretty quickly)
e|---------------------------------|
b|---------------------------------|
g|-------------------------3-3-5---|
d|--5--5-5-5-5-5-5-3-3-3-3-3-3-5---|
a|--5--5-5-5-5-5-5-3-3-3-3-1-1-3---|
E|--3--3-3-3-3-3-3-1-1-1-1---------|

verse
e|-----------------------------------|
b|-----------------------------------|
g|--------------------------3-3-5-3--|
d|--5-5-5-5-5-5-5-5-3-3-3-3-3-3-5-3--|
a|--5-5-5-5-5-5-5-5-3-3-3-3-1-1-3-1--|
E|--3-3-3-3-3-3-3-3-1-1-1-1----------|

Chorus
e|---------------------------------------------------------------------|
b|---------------------------------------------------------------------|
g|--3-3-3-3-3-3-3-3-2-2-2-2-2-2-2-2-2----------------------------------|
d|--3-3-3-3-3-3-3-3-2-2-2-2-2-2-2-2-2-5-5-5-5-5-5-5-5-3-3-3-3-3-3-3-3--|
a|--1-1-1-1-1-1-1-1-0-0-0-0-0-0-0-0-0-5-5-5-5-5-5-5-5-3-3-3-3-3-3-3-3--|
E|------------------------------------3-3-3-3-3-3-3-3-1-1-1-1-1-1-1-1--|

e|-------------------------------------------------------------|
b|-------------------------------------------------------------|
g|--3-3-3-3-3-3-3-3-2-2-2-2-2-2-2-2-2-5b-5b-5b-5b-5b-5b-5b-5b--|
d|--3-3-3-3-3-3-3-3-2-2-2-2-2-2-2-2-2-5b-5b-5b-5b-5b-5b-5b-5b--|
a|--1-1-1-1-1-1-1-1-0-0-0-0-0-0-0-0-0-3b-3b-3b-3b-3b-3b-3b-3b--|
E|-------------------------------------------------------------|

repeat verse, chorus, intro/outro

Feedback and corrections are appreciated.
Добавлено: 02.09.2015
Другие материалы по этой песне:
  • Аккорды и текст

Страница создана 02.09.2015
http://primanota.ru/ceremony/world-blue-chords.htm
Привет, Гость.
Предлагаем пройти революционный курс по гитаре.
Подарок от PrimaNota.Ru, забирай!