PrimaNota.ru - самый крупный в мире бесплатный архив песенных текстов, аккордов, табулатур и нот


Ceremony - Repeating The Circle - таба, видео

Регистрация Запомнить меня
Войти через:  Facebook Google Twitter Vk Yandex Mail.ru

Ceremony - Repeating The Circle - таба, видео

Печатать
Просмотров: 180
Уроки эстрадного вокала в Санкт-Петербурге
Repeating the Circle

bass intro
g|------------------|        |-------------------------------------|
d|------------------|--four |--------------------------------------|
a|------------------|measures|---------------------5--5-3-3--------|
E|--/5--5-5--5-5-5--|        |--5--5-5--5-3-3--0-0-----------------|

guitar intro
e|------------------------------|
b|------------------------------|
g|------------------------------|
d|--5/7-7--7-7-7-5h7--3/5--0h2--|
a|------------------------------|
E|------------------------------|

e|--------------------------------------------------|
b|----------------------------------(steady build)--|
g|---------------------------------2-2-2-2-2-2-2-2--|
d|--5/7-7--7-7-7-5h7--3/5--3--2----2-2-2-2-2-2-2-2--|
a|---------------------------------0-0-0-0-0-0-0-0--|
E|--------------------------------------------------|

verse
e|-----------------------------------|
b|-----------------------------------|
g|--------------------------7-7-5-5--|
d|--7-7-7-7-7-7-5-5-2-2-2-2-7-7-5-5--|  X2
a|--7-7-7-7-7-7-5-5-2-2-2-2-5-5-3-3--|
E|--5-5-5-5-5-5-3-3-0-0-0-0----------|

e|--------------------------------------------------------------------|
b|--------------------------------------------------------------------|
g|--------------------------------------------------------------------|
d|--7-7-7-7-2-2-2-2-7-7-7-7-2-2-2-2--5-5-5-5-5-5-5-5-5-5-5-5-5-5-5-5--|
a|--7-7-7-7-2-2-2-2-7-7-7-7-2-2-2-2--5-5-5-5-5-5-5-5-5-5-5-5-5-5-5-5--|
E|--5-5-5-5-0-0-0-0-5-5-5-5-0-0-0-0--3-3-3-3-3-3-3-3-3-3-3-3-3-3-3-3--|

repeat verse

e|--------------------------------------------------------------------|
b|--------------------------------------------------------------------|
g|--4-4-4-4-4-4-2-2-4-4-2-2-2-2-4-4-----------------------------------|
d|--4-4-4-4-4-4-2-2-4-4-2-2-2-2-4-4-5-5-5-5-5-5-7-7-5-5-5-5-5-5-5-5---|
a|--2-2-2-2-2-2-0-0-2-2-0-0-0-0-2-2-5-5-5-5-5-5-7-7-5-5-5-5-5-5-5-5---|
E|----------------------------------3-3-3-3-3-3-5-5-3-3-3-3-3-3-3-3---|

e|---------------------------------------------------------------------|
b|---------------------------------------------------------------------|
g|--4-4-4-4-4-4-2-2-4-4-2-2-2-2-4-4------------------------------------|
d|--4-4-4-4-4-4-2-2-4-4-2-2-2-2-4-4-5-5-5-5-5-5-7-7-5-5-3-3-3-3--5-7~--|
a|--2-2-2-2-2-2-0-0-2-2-0-0-0-0-2-2-5-5-5-5-5-5-7-7-5-5-3-3-3-3--5-7~--|
E|----------------------------------3-3-3-3-3-3-5-5-3-3-1-1-1-1--3-5~--|

bridge
e|------------------------------|
b|------------------------------|
g|------------------------------|
d|--5/7-7--7-7-7-5h7--3/5--0h2--|
a|------------------------------|
E|------------------------------|

e|---------------------------------------------------------------|
b|-----------------------------------------------(steady build)--|
g|----------------------------------------------2-2-2-2-2-2-2-2--|
d|--5/7-7--7-7-7-5h7--5--3--2~--00h2-3--0-0h2---2-2-2-2-2-2-2-2--|
a|----------------------------------------------0-0-0-0-0-0-0-0--|
E|---------------------------------------------------------------|

repeat verse 2x's

outro
e|-------|
b|-------|
g|-------|
d|--7~---| and feedback
a|--7~---|
E|--5~---|

Feedback and corrections are appreciated.
Добавлено: 02.09.2015
Вам также может быть интересно:
Другие материалы по этой песне:
  • Аккорды и текст

Страница создана 02.09.2015
http://primanota.ru/ceremony/repeating-circle-chords.htm
Привет, Гость.
Предлагаем пройти революционный курс по гитаре.
Подарок от PrimaNota.Ru, забирай!