PrimaNota.ru - самый крупный в мире бесплатный архив песенных текстов, аккордов, табулатур и нот


Ceremony - Quarantine - таба, видео

Регистрация Запомнить меня
Войти через:  Facebook Google Twitter Vk Yandex Mail.ru

Ceremony - Quarantine - таба, видео

Печатать
Просмотров: 91
Quarantine

intro
e|-------------------------------------------------------------------|
b|-------------------------------------------------------------------|
g|--2--2-2--5--5-5--7-7-7-----------2--2-2---------------------------|
d|--2--2-2--5--5-5--7-7-7-2--2-2-2--2--2-2--5--5-5--3-3-3--2--2-2-2--| x2
a|--0--0-0--3--3-3--5-5-5-2--2-2-2--0--0-0--5--5-5--3-3-3--2--2-2-2--|
E|------------------------0--0-0-0----------3--3-3--1-1-1--0--0-0-0--|

verse
e|-------------------------------------------------------------------|
b|-------------------------------------------------------------------|
g|--2--2-2--5--5-5--7-7-7-9--9-9-9--2--2-2---------------------------|
d|--2--2-2--5--5-5--7-7-7-9--9-9-9--2--2-2--5--5-5--3-3-3--2--2-2-2--| x4
a|--0--0-0--3--3-3--5-5-5-7--7-7-7--0--0-0--5--5-5--3-3-3--2--2-2-2--|
E|------------------------------------------3--3-3--1-1-1--0--0-0-0--|

chorus
e|-------------------------------|      |-----------------------------------|
b|-------------------------------|      |-----------------------------------|
g|-------------------------------|      |-----------------------------------|
d|--7--7-7-6--6-6-5--5-5-4--4-4--|  x3  |--3-3-3-3--3-3-3--2-2-2-2--2-2-2---|
a|--7--7-7-6--6-6-5--5-5-4--4-4--|      |--3-3-3-3--3-3-3--2-2-2-2--2-2-2---|
E|--5--5-5-4--4-4-3--3-3-2--2-2--|      |--1-1-1-1--1-1-1--0-0-0-0--0-0-0---|

verse 4x's

chorus

e|--------|
b|--------|
g|--------|
d|--5-7~--|
a|--5-7~--|
E|--3-5~--|

bridge
e|---------------------------------------|
b|---------------------------------------|
g|--7--7--7--8--8--8--9-9-9-9-9-9-9-9-9--|
d|--7--7--7--8--8--8--9-9-9-9-9-9-9-9-9--|
a|--5--5--5--6--6--6--7-7-7-7-7-7-7-7-7--|
E|---------------------------------------|

e|-------------------------------------|      |-----------------------------------|
b|-------------------------------------|      |-----------------------------------|
g|--7-7-7-7-8-8-8-8-9-9-9-9-9-9-9-9-9--|      |-----------------------------------|
d|--7-7-7-7-8-8-8-8-9-9-9-9-9-9-9-9-9--| 2x's |--7-7-7-7-7-7-7-7-5-5-5-5-3-3-3-3--| 2x's
a|--5-5-5-5-6-6-6-6-7-7-7-7-7-7-7-7-7--|      |--7-7-7-7-7-7-7-7-5-5-5-5-3-3-3-3--|
E|-------------------------------------|      |--5-5-5-5-5-5-5-5-3-3-3-3-1-1-1-1--|
  ^repeat all 2 times

intro x2

verse x4

chorus

  end on:
e|------
b|------
g|------
d|--4~--
a|--4~--
E|--2~--

Feedback and corrections are appreciated.
Добавлено: 02.09.2015
Другие материалы по этой песне:
  • Аккорды и текст

Страница создана 02.09.2015
http://primanota.ru/ceremony/quarantine-chords.htm
Привет, Гость.
Предлагаем пройти революционный курс по гитаре.
Подарок от PrimaNota.Ru, забирай!