PrimaNota.ru - самый крупный в мире бесплатный архив песенных текстов, аккордов, табулатур и нот


Ceremony - Ordinary People - таба, видео

Регистрация Запомнить меня
Войти через:  Facebook Google Twitter Vk Yandex Mail.ru

Ceremony - Ordinary People - таба, видео

Печатать
Просмотров: 87
ordinary people

verse
e|-------------------------------------|
b|-------------------------------------|
g|-------------------------------------|
d|--9-9-6-6-4-4-6-6---9-9-4-4-6-6-6-6--|  x4
a|--9-9-6-6-4-4-6-6---9-9-4-4-6-6-6-6--|
E|--7-7-4-4-2-2-4-4---7-7-2-2-4-4-4-4--|

chorus
e|-----------------------------------|
b|-----------------------------------|
g|-----------------------------------|
d|--4-4-4-4-4-4-4-4-4-4-4-6/7-7-9-9--|
a|--4-4-4-4-4-4-4-4-4-4-4-6/7-7-9-9--|
E|--2-2-2-2-2-2-2-2-2-2-2-4/5-5-7-7--|

verse x4

chorus x4

bridge
e|-------------------------------|
b|-------------------------------|
g|-------------------------------|
d|--9-9-6-6-4-4-6~----9-9-4-4-6--| x2
a|--9-9-6-6-4-4-6~----9-9-4-4-6--|
E|--7-7-4-4-2-2-4~----7-7-2-2-4--|

verse

strum til the end
e|-----|
b|-----|
g|-----|
d|--6--|
a|--6--|
E|--4--|

lead part (at least a general idea)
e|-----------------|
b|----------7-6----|
g|--6br---6-----6--|
d|------6----------|
a|-----------------|
E|-----------------|

Feedback and corrections are appreciated.
Добавлено: 02.09.2015
Другие материалы по этой песне:
  • Аккорды и текст

Страница создана 02.09.2015
http://primanota.ru/ceremony/ordinary-people-chords.htm
Привет, Гость.
Предлагаем пройти революционный курс по гитаре.
Подарок от PrimaNota.Ru, забирай!