PrimaNota.ru - самый крупный в мире бесплатный архив песенных текстов, аккордов, табулатур и нот


Ceremony - Nosebleed - таба, видео

Регистрация Запомнить меня
Войти через:  Facebook Google Twitter Vk Yandex Mail.ru

Ceremony - Nosebleed - таба, видео

Печатать
Просмотров: 133
Уроки эстрадного вокала в Санкт-Петербурге
Nosebleed

intro
e|---------------|
b|---------------|
g|---------------|
d|--5--5-5--2~---|
a|--5--5-5--2~---|
E|--3--5-5--0~---|

bassline:
g|-----------------------|
d|-----------------------|
a|-----------------------|
E|--3-3-0~-----3-5-0~----|

verse
e|------------------|------------------------------|
b|--slight build up-|------------------------------|
g|------------------|------------------------------|
d|--2-2-2-2-2-2-2-2-|--5-5-2--2-2-2--5/7-2--2-2-2--| x2
a|--2-2-2-2-2-2-2-2-|--5-5-2--2-2-2--5/7-2--2-2-2--|
E|--0-0-0-0-0-0-0-0-|--3-3-0--0-0-0--3/5-0--0-0-0--|

e|------------------------------|
b|------------------------------|
g|--5-5-----------5/7-----------|
d|--5-5-7--7-7-7--5/7-7--7-7-7--| x 2
a|--3-3-7--7-7-7--3/5-7--7-7-7--|
E|------5--5-5-5------5--5-5-5--|

repeat verse twice (no build up 2nd time)

e|-------------------------|
b|-------------------------|
g|-4-4-4-4-4444------------|
d|-4-4-4-4-4444---5-5-2~---|
a|-2-2-2-2-2222---5-5-2~---|
E|----------------3-3-0~---|

e|-------------------------|
b|-------------------------|
g|--12-12-9-----12/14-9~---|
d|-------------------------|
a|--10-10-7~----10/12-7~---|
E|-------------------------|

repeat whole verse again

e|--pb12r10~----|    |--------------|--------------|    |--pb12r10~----|
b|--------------|    |--pb14r12~----|--------------|    |--------------|
g|--------------|    |--------------|--------------|    |--------------|
d|--------------| x4 |--------------|--------------| x2 |--------------| x 2
a|--------------|    |--------------|--------------|    |--------------|
E|--------------|    |--------------|--------------|    |--------------|

bassline
g|----------------|
d|----------------|
a|----------------|
E|--3h5-0h3-0~----|

e|--10b~----10b-10b-10b-10b---|
b|--15b~----15b-15b-15b-15b---|
g|----------------------------|
d|----------------------------|
a|----------------------------|
E|----------------------------|

repeat verse again and end on Echord

Not sure if the chords sound better as power chords or full chords...

Feedback and corrections are appreciated.
Добавлено: 02.09.2015
Другие материалы по этой песне:
  • Аккорды и текст

Страница создана 02.09.2015
http://primanota.ru/ceremony/nosebleed-chords.htm
Привет, Гость.
Предлагаем пройти революционный курс по гитаре.
Подарок от PrimaNota.Ru, забирай!