PrimaNota.ru - самый крупный в мире бесплатный архив песенных текстов, аккордов, табулатур и нот


Ceremony - Citizen - таба, видео

Регистрация Запомнить меня
Войти через:  Facebook Google Twitter Vk Yandex Mail.ru

Ceremony - Citizen - таба, видео

Печатать
Просмотров: 78
citizen

verse
e|--------------------------------|    |--------------------------------|    |--------------------------------|
b|--------------------------------|    |--------------------------------|    |--------------------------------|
g|--------------------------------|    |--5-5-5-------------------------|    |--5-5-5-7--7-7-7-7-7-7-7-7-7-7--|
d|--5-5-5-7--7-7-7-7-7-7-7-7-7-7--| x4 |--5-5-5-7--7-7-7-7-7-7-7-7-7-7--| x3 |--5-5-5-7--7-7-7-7-7-7-7-7-7-7--|
a|--5-5-5-7--7-7-7-7-7-7-7-7-7-7--|    |--3-3-3-7--7-7-7-7-7-7-7-7-7-7--|    |--3-3-3-5--5-5-5-5-5-5-5-5-5-5--|
E|--3-3-3-5--5-5-5-5-5-5-5-5-5-5--|    |--------5--5-5-5-5-5-5-5-5-5-5--|    |--------------------------------|

e|------------|    |--------|    |---------------|
b|------------|    |--------|    |---------------|
g|------------|    |--5-----|    |---------------|
d|--5-5-5-7~--| x2 |--5-7~--| x2 |--7---7-7-7-7--|
a|--5-5-5-7~--|    |--3-7~--|    |--7---7-7-7-7--|
E|--3-3-3-5~--|    |----5~--|    |--5---5-5-5-5--|

still working on the solo...

repeat verse a few times

outro
e|-----------------------------------------------|
b|-----------------------------------------------|
g|-------------5-5--------5-5/7-7-7--5-5---------|
d|--5-5/7-7-7--5-5-7-7-7--5-5/7-7-7--5-5-7-7-7---|
a|--5-5/7-7-7--3-3-7-7-7--3-3/5-5-5--3-3-7-7-7---|
E|--3-3/5-5-5------5-5-5-----------------5-5-5---|
play twice. play last A chord longer.

Feedback and corrections are appreciated.
Добавлено: 02.09.2015
Другие материалы по этой песне:
  • Аккорды и текст

Страница создана 02.09.2015
http://primanota.ru/ceremony/citizen-chords.htm
Привет, Гость.
Предлагаем пройти революционный курс по гитаре.
Подарок от PrimaNota.Ru, забирай!