PrimaNota.ru - самый крупный в мире бесплатный архив песенных текстов, аккордов, табулатур и нот


Ceremony - Adult - таба, видео

Регистрация Запомнить меня
Войти через:  Facebook Google Twitter Vk Yandex Mail.ru

Ceremony - Adult - таба, видео

Печатать
Просмотров: 104
adult

intro/verse
e|------------------------------------|
b|------------------------------------|
g|--2-2-2-2-2-7-7-7--2-2-2-2-2--------|
d|--2-2-2-2-2-7-7-7--2-2-2-2-2-5-5-5--|
a|--0-0-0-0-0-5-5-5--0-0-0-0-0-5-5-5--|
E|-----------------------------3-3-3--|

chorus
e|------------------------------------|    |------------------------------------|
b|------------------------------------|    |------------------------------------|
g|--2-2-2-2-2-7-7-7-7-7-7-7-7-7-7-7---|    |--2-2-2-2-2-------------------------|
d|--2-2-2-2-2-7-7-7-7-7-7-7-7-7-7-7---| x3 |--2-2-2-2-2-5-5-5-5-5-5-5-5-5-5-5---|
a|--0-0-0-0-0-5-5-5-5-5-5-5-5-5-5-5---|    |--0-0-0-0-0-5-5-5-5-5-5-5-5-5-5-5---|
E|------------------------------------|    |------------3-3-3-3-3-3-3-3-3-3-3---|

verse

chorus

hold:
e|------|
b|------|
g|------|
d|--5~--|  x2
a|--5~--|
E|--3~--|

repeat verse and end on:
e|------|
b|------|
g|------|
d|--7~--|
a|--7~--|
E|--5~--|

Feedback and corrections are appreciated.
Добавлено: 02.09.2015
Другие материалы по этой песне:
  • Аккорды и текст

Страница создана 02.09.2015
http://primanota.ru/ceremony/adult-chords.htm
Привет, Гость.
Предлагаем пройти революционный курс по гитаре.
Подарок от PrimaNota.Ru, забирай!