PrimaNota.ru - самый крупный в мире бесплатный архив песенных текстов, аккордов, табулатур и нот


Ceremonial Oath - The Day I Buried - текст песни, таба, бас-таба, видео

Регистрация Запомнить меня
Войти через:  Facebook Google Twitter Vk Yandex Mail.ru

Ceremonial Oath - The Day I Buried - текст песни, таба, бас-таба, видео

Печатать
Просмотров: 185
As recorded by Ceremonial Oath
                          (From the 1995 Album CARPET)

Words and Music by Ceremonial Oath
Transcribed by Donald Alasdair Morrison

Gtr I (E A D G B E) - 'Distorted; partially panned to left'
Gtr II (E A D G B E) - 'Distorted; partially panned to right'
Gtr III (E A D G B E) - 'Distorted; centred'
Gtr IV (E A D G B E) - 'Clean; partially panned to right'

  Q=155                   Q=125
  C5   B5     G5   F#5    E5
 4/4
  Gtrs I, II
  H    H      H    H      W
|-----------|-----------|------|
|-----------|-----------|------|
|-----------|-----------|------|
|-5----4----|-----------|------|
|-3----2----|-5----4----|-2----|
|-----------|-3----2----|-0----|


                                           G5
  Gtrs I, II
  +W                +W             +H       Q   Q
|----------------|-------------|-------------------|
|----------------|-------------|-------------------|
|----------------|-------------|-------------------|
|----------------|-------------|-------------------|
|-(2)------------|--(2)--------|---(2)-----/5--/5--|
|-(0)------------|--(0)--------|---(0)-----/3--/3--|
|
| Gtr III
|  H..        E      W             +W
|------------{7}-|-{12}--------|-({12})------------|
|----------------|-------------|-------------------|
|----------------|-------------|-------------------|
|----------------|-------------|-------------------|
|----------------|-------------|-------------------|
|----------------|-------------|-------------------|


  Em
  Gtr I
   PM|        PM      PM|                   PM|        PM
   E E  E  Q  E Q     E E  E  Q  S S  Q     E E  E  Q  E Q
|------------------|---------------------|------------------|
|------------------|---------------------|------------------|
|------------------|---------------------|------------------|
|---------------9--|---------------------|---------------9--|
|------12-10-------|------12-10--7h9-10--|------12-10-------|
|--0-0--------0----|--0-0----------------|--0-0--------0----|
|
| Gtr IV
|  W                  W                     W
|-^0---------------|-^0------------------|-^0---------------|
|-^0---------------|-^0------------------|-^0---------------|
|-^0---------------|-^0------------------|-^0---------------|
|-^2---------------|-^2------------------|-^2---------------|
|-^2---------------|-^2------------------|-^2---------------|
|-^0---------------|-^0------------------|-^0---------------|


                        Am
   PM|                  PM|        PM     PM|
   E E  E  Q  S S  Q    E E  E  Q  E Q    E E  E  Q  S S  Q
|---------------------|-----------------|---------------------|
|---------------------|-----------------|---------------------|
|---------------------|--------------9--|---------------------|
|---------------------|-----12-10-------|-----12-10--7h9-10---|
|------12-10--7h9-10--|-0-0--------0----|-0-0-----------------|
|--0-0----------------|-----------------|---------------------|
|
|  W                    E E  E  Q  E Q    E E  E  Q  E    Q
|-^0------------------|--------------0--|-----------------0---|
|-^0------------------|---------1-------|---------1-----------|
|-^0------------------|------2-----2----|------2-----2--------|
|-^2------------------|---2-------------|---2-----------------|
|-^2------------------|-0---------------|-0-------------------|
|-^0------------------|-----------------|---------------------|


                                         Em
  PM|        PM     PM|                   PM|        PM
  E E  E  Q  E Q    E E  E  Q  S S  Q     E E  E  Q  E Q
|-----------------|--------------------|------------------|
|-----------------|--------------------|------------------|
|--------------9--|--------------------|------------------|
|-----12-10-------|-----12-10--7h9-10--|---------------9--|
|-0-0--------0----|-0-0----------------|------12-10-------|
|-----------------|--------------------|--0-0--------0----|
|
| E E  E  Q  E Q    E E  E  Q  E    Q     W
|--------------0--|-----------------0--|-^0---------------|
|---------1-------|---------1----------|-^0---------------|
|------2-----2----|------2-----2-------|-^0---------------|
|---2-------------|---2----------------|-^2---------------|
|-0---------------|-0------------------|-^2---------------|
|-----------------|--------------------|-^0---------------|


  Gtr I
   PM|                   PM|        PM      PM-|
   E E  E  Q  S S  Q     E E  E  Q  E Q     E  E  E  Q  S S  Q
|---------------------|------------------|------------------------|
|---------------------|------------------|------------------------|
|---------------------|------------------|------------------------|
|---------------------|---------------9--|------------------------|
|------12-10--7h9-10--|------12-10-------|-------12-10--7h9-10----|
|--0-0----------------|--0-0--------0----|--0--0------------------|
|
| Gtr II
|  W                     W                  H.               Q
|---------------------|------------------|------------------------|
|---------------------|------------------|------------------------|
|---------------------|------------------|------------------------|
|---------------------|------------------|------------------------|
|---------------------|------------------|------------------------|
|---------------------|------------------|------------------12\---|
|
| Gtr IV
|  W                     W                  W
|-^0------------------|-^0---------------|-^0---------------------|
|-^0------------------|-^0---------------|-^0---------------------|
|-^0------------------|-^0---------------|-^0---------------------|
|-^2------------------|-^2---------------|-^2---------------------|
|-^2------------------|-^2---------------|-^2---------------------|
|-^0------------------|-^0---------------|-^0---------------------|


  N.C.
  Gtr I
  PM|        PM     PM|        PM        PM|        PM
  E E  E  Q  E Q    E E  E  Q  E    Q    E E  E  Q  E Q
|-----------------|--------------------|-----------------|
|-----------------|--------------------|-----------------|
|-----10--9-------|-----10--9--7----9--|-----10--9-------|
|--------------7--|--------------------|--------------7--|
|-0-0--------0----|-0-0----------------|-0-0--------0----|
|-----------------|--------------------|-----------------|
|
| Gtr II
| PM|        PM     PM|                  PM|        PM
| E E  E  Q  E Q    E E  E  Q  S S  Q    E E  E  Q  E Q
|-----------------|--------------------|-----------------|
|-----------------|--------------------|-----------------|
|--------------9--|--------------------|--------------9--|
|-----12-10----7--|-----12-10--7h9-10--|-----12-10-------|
|-0-0--------0----|-0-0----------------|-0-0--------0----|
|-----------------|--------------------|-----------------|


  PM|        PM        PM|         PM      PM|
  E E  E  Q  E    Q    E E  E  Q   E Q     E E  E  Q     S S  Q
|--------------------|-------------------|-----------------------|
|--------------------|-------------------|-----------------------|
|-----10--9--7----9--|-------------------|-----------------------|
|--------------------|---------------9---|-----------------------|
|-0-0----------------|-----12-10---------|-----12-10-----7h9-10--|
|--------------------|-0-0---------0-----|-0-0-------------------|
|
| PM|                  PM--------------------------------|
| E E  E  Q  S S  Q    E E  E  E E E E E   E E  E  E S S E    Q
|--------------------|-------------------|-----------------------|
|--------------------|-------------------|-----------------------|
|--------------------|-------------------|-----------------------|
|-----12-10--7h9-10--|-------------------|-----------------------|
|-0-0----------------|-------------------|--------------------5--|
|--------------------|-0-0--0--0-0-0-0-0-|-0-0--0--0-0-0-0-------|


  PM|             PM          PM|                       PM|        PM
  E E    E  Q     E   Q       E E    E  Q     S S  Q    E E  E  Q  E Q
|---------------------------|-------------------------|-----------------|
|---------------------------|-------------------------|-----------------|
|---------------------------|-------------------------|-----10--9-------|
|---------------------9-----|-------------------------|--------------7--|
|-------12-10---------------|-------12-10-----7h9-10--|-0-0--------0----|
|-0-0-------------0---------|-0-0---------------------|-----------------|
|
| PM------------------------------------------|         PM|        PM
| E S S  E  S S E S S E S S   E S S  E  S S E E    Q    E E  E  Q  E Q
|---------------------------|-------------------------|-----------------|
|---------------------------|-------------------------|-----------------|
|---------------------------|-------------------------|--------------9--|
|---------------------------|-------------------------|-----12-10-------|
|---------------------------|----------------------5--|-0-0--------0----|
|-0-0-0--0--0-0-0-0-0-0-0-0-|-0-0-0--0--0-0-0-0-------|-----------------|


  PM|        PM        PM|          PM     PM|        PM
  E E  E  Q  E    Q    E E  E   Q   E Q    E E  E  Q  E    Q
|--------------------|-------------------|---------------------|
|--------------------|-------------------|---------------------|
|-----10--9--7----9--|-----10---9--------|-----10--9--7----9---|
|--------------------|----------------7--|---------------------|
|-0-0----------------|-0-0----------0----|-0-0-----------------|
|--------------------|-------------------|---------------------|
|
| PM|                  PM|          PM     PM|
| E E  E  Q  S S  Q    E E  E   Q   E Q    E E  E  Q  S S  Q
|--------------------|-------------------|---------------------|
|--------------------|-------------------|---------------------|
|--------------------|----------------9--|---------------------|
|-----12-10--7h9-10--|-----12-[10]-------|-----12-10--7h9-10---|
|-0-0----------------|-0-0----------0----|-0-0-----------------|
|--------------------|-------------------|---------------------|


  PM|        PM     PM|        PM        PM|        PM
  E E  E  Q  E Q    E E  E  Q  E    Q    E E  E  Q  E Q
|-----------------|--------------------|-----------------|
|-----------------|--------------------|-----------------|
|-----------------|--------------------|-----------------|
|-----10--9-------|-----10--9--7----9--|-----10--9-------|
|--------------7--|--------------------|--------------7--|
|-0-0--------0----|-0-0----------------|-0-0--------0----|
|
| PM|        PM     PM|                  PM|        PM
| E E  E  Q  E Q    E E  E  Q  S S  Q    E E  E  Q  E Q
|-----------------|--------------------|-----------------|
|-----------------|--------------------|-----------------|
|-----------------|--------------------|-----------------|
|--------------9--|--------------------|--------------9--|
|-----12-10-------|-----12-10--7h9-10--|-----12-10-------|
|-0-0--------0----|-0-0----------------|-0-0--------0----|


  PM|        PM        PM----|   PM----|        PM----|   PM----|
  E E  E  Q  E    Q    S S S S E S S S S E Q    S S S S E S S S S E Q
|--------------------|------------------------|------------------------|
|--------------------|------------------------|------------------------|
|--------------------|------------------------|------------------------|
|-----10--9--7----9--|------------------------|------------------------|
|--------------------|---------7---------7----|---------7---------7----|
|-0-0----------------|-0-0-0-0-0-0-0-0-0-0----|-0-0-0-0-0-0-0-0-0-0----|
|
| PM|                  PM----|   PM----|        PM----|   PM----|
| E E  E  Q  S S  Q    S S S S E S S S S E Q    S S S S E S S S S E Q
|--------------------|------------------------|------------------------|
|--------------------|------------------------|------------------------|
|--------------------|------------------------|------------------------|
|--------------------|------------------------|------------------------|
|-----12-10--7h9-10--|---------7---------7----|---------7---------7----|
|-0-0----------------|-0-0-0-0-0-0-0-0-0-0----|-0-0-0-0-0-0-0-0-0-0----|


  Q=190
  TP   TP      TP    TP
  H    H       H     H      E H..
|-----------|-------------|----------|
|-----------|-------------|----------|
|-----------|-------------|----------|
|------9----|-10----12----|----------|
|-7---------|-------------|-7--------|
|-----------|-------------|----------|
|
| TP   TP      TP    TP
| H    H       H     H      E H..
|-----------|-------------|----------|
|-----------|-------------|----------|
|-----------|-------------|----------|
|------9----|-------------|----------|
|-7---------|-10-----9----|-7--------|
|-----------|-------------|----------|


    TP   TP      TP   TP      TP    TP      TP  TP  TP
    H    H       H    H       H     H       Q   Q   H
||------------|------------|-------------|---------------|
||o-----------|------------|-------------|---------------|
||------------|------------|-------------|---------------|
||-------9----|--7----9----|-------12----|-13--10--12----|
||o-7---------|------------|-10----------|---------------|
||------------|------------|-------------|---------------|
|
|   TP   TP      TP   TP      TP    TP      TP  TP  TP
|   H    H       H    H       H     H       Q   Q   H
||------------|------------|-------------|---------------|
||o-----------|------------|-------------|---------------|
||------------|------------|-------------|-----12--------|
||-------9----|-10----9----|-------12----|-13------12----|
||o-7---------|------------|-10----------|---------------|
||------------|------------|-------------|---------------|


  TP   TP     TP   TP     TP   TP      TP   TP
  H    H      H    H      H    H       H    H
|-----------|-----------|-----------|-------------||
|-----------|-----------|-----------|------------o||
|-----------|-----------|-----------|-------------||
|------7----|-5----7----|------9----|-------------||
|-5---------|-----------|-7---------|--3----5----o||
|-----------|-----------|-----------|-------------||
|
| TP   TP     TP   TP     TP   TP      TP   TP
| H    H      H    H      H    H       H    H
|-----------|-----------|-----------|-------------||
|-----------|-----------|-----------|------------o||
|-----------|-----------|-----------|-------------||
|------7----|-8----7----|------9----|-------------||
|-5---------|-----------|-7---------|-10----9----o||
|-----------|-----------|-----------|-------------||


  Q=175
  E5
    PM----|   PM  PM|     PM--|   PM         PM--|   PM  PM|
  E S   S E E E E E E   E S S E E E E Q    E S S E E E E E E
|---------------------|------------------|-------------------|
|---------------------|------------------|-------------------|
|---------------------|------------------|-------------------|
|---------------------|------------------|-------------------|
|-2---------2---2-----|-2-------2---2----|-2-------2---2-----|
|-0-0---0-0-0-0-0-0-0-|-0-0-0-0-0-0-0----|-0-0-0-0-0-0-0-0-0-|
|
|                                            PM--|   PM  PM|
| E H..                 W                  E S S E E E E E E
|---------------------|------------------|-------------------|
|---------------------|------------------|-------------------|
|---------------------|------------------|-------------------|
|---------------------|------------------|-------------------|
|-2-------------------|------------------|-2-------2---2-----|
|-0-------------------|------------------|-0-0-0-0-0-0-0-0-0-|


                                                  A5 Bb5 A5 G5
    PM--|   PM  PM|     PM--|   PM  PM|     PM--|
  E S S E E E E E E   E S S E E E E E E   E S S E Q  E   E  E
|-------------------|-------------------|----------------------|
|-------------------|-------------------|----------------------|
|-------------------|-------------------|----------------------|
|-------------------|-------------------|----------------------|
|-2-------2---2-----|-2-------2---2-----|-2-------7--8---7--5--|
|-0-0-0-0-0-0-0-0-0-|-0-0-0-0-0-0-0-0-0-|-0-0-0-0-5--6---5--3--|
|
| PM----|   PM  PM|     PM--|   PM  PM----------|
| E S S E E E E E E   E S S E E E E E E   E S S E Q  E   E  E
|-------------------|-------------------|----------------------|
|-------------------|-------------------|----------------------|
|-------------------|-------------------|----------------------|
|-------------------|-------------------|----------------------|
|---------2---2-----|-2-------2---2-----|----------------------|
|-0-0-0-0-0-0-0-0-0-|-0-0-0-0-0-0-0-0-0-|-0-0-0-0-5--6---5--3--|


    E5                                      C5
    PM    PM  PM  PM    PM    PM  PM        PM    PM  PM  PM
    E E   E E E E E E   E E   E E E E E E   E E   E E E E E E
||--------------------|-------------------|-------------------|
||o-------------------|-------------------|-------------------|
||------------------4-|-------------------|-----------------4-|
||----2-----5---2-----|---5-----7---5-4-5-|---2-----5---2-----|
||o-------------------|-------------------|-3-----3---3---3---|
||--0-----0---0---0---|-0-----0---0-------|-------------------|
|
|   PM----|   PM  PM----------|   PM  PM----------|   PM  PM|
|   E S S E E E E E E   E S S E E E E E E   E S S E E E E E E
||--------------------|-------------------|-------------------|
||o-------------------|-------------------|-------------------|
||--------------------|-------------------|-------------------|
||--------------------|-------------------|---------5---5-----|
||o---------2---2-----|---------2---2-----|-3-3-3-3-3-3-3-3-3-|
||--0-0-0-0-0-0-0-0-0-|-0-0-0-0-0-0-0-0-0-|-------------------|


  D5                  E5
  PM    PM  PM        PM    PM  PM  PM    PM    PM  PM
  E E   E E E E E E   E E   E E E E E E   E E   E E E E E E
|-------------------|-------------------|-------------------|
|-------------------|-------------------|-------------------|
|-------------------|-----------------4-|-------------------|
|---5-----7---5-4---|---2-----5---2-----|---5-----7---5-4-5-|
|-5-----5---5-----5-|-------------------|-------------------|
|-------------------|-0-----0---0---0---|-0-----0---0-------|
|
| PM----|   PM  PM----------|   PM  PM----------|   PM  PM|
| E S S E E E E E E   E S S E E E E E E   E S S E E E E E E
|-------------------|-------------------|-------------------|
|-------------------|-------------------|-------------------|
|-------------------|-------------------|-------------------|
|---------7---7-----|-------------------|-------------------|
|-5-5-5-5-5-5-5-5-5-|---------2---2-----|---------2---2-----|
|-------------------|-0-0-0-0-0-0-0-0-0-|-0-0-0-0-0-0-0-0-0-|


                     1.                       2.
  C5                  A5
  PM    PM  PM  PM    PM    PM                 PM  PM
  E E   E E E E E E   E E   E Q.     +Q        E E E Q.   +Q
|-------------------|-----------------------||------------------|
|-------------------|----------------------o||------------------|
|-----------------4-|-----------------------||------------------|
|---2-----5---2-----|---5-----7------(7)----||---5---7----(7)---|
|-3-----3---3---3---|-0-----0--------------o||-0---0------------|
|-------------------|-----------------------||------------------|
|
| PM----|   PM  PM----------|    PM   PM-|
| E S S E E E E E E   E S S E E  E E  E  E     W
|-------------------|-----------------------||------------------|
|-------------------|----------------------o||------------------|
|-------------------|-----------------------||------------------|
|---------5---5-----|---------2----2--------||-2----------------|
|-3-3-3-3-3-3-3-3-3-|-0-0-0-0-0--0-0--0--0-o||-0----------------|
|-------------------|-----------------------||------------------|


  E5            D5 E5               C5               D5
   H.           E  E   +W            H..             E   +W
|--------------------|------------|--------------------|----------------|
|--------------------|------------|--------------------|----------------|
|--------------------|------------|--------------------|----------------|
|---------------7--9-|-(9)--------|--5---------------7-|-(7)------------|
|--2------------5--7-|-(7)--------|--3---------------5-|-(5)------------|
|--0-----------------|------------|--------------------|----------------|
|
| +E  E E E E E E  E   +W           +E   E E E E E E E   +Q.   Q.   +Q
|--------------------|------------|--------------------|----------------|
|--------------------|------------|--------------------|----------------|
|--------------------|------------|--------------------|----------------|
|-(2)---5-4-7-5-4----|------------|--------5-4-7-5-4---|----------------|
|-(0)-7------------7-|-(7)--------|-(7)--7-----------7-|-(7)---5----(5)-|
|--------------------|------------|--------------------|----------------|


  E5            D5 E5               C5               A5
   H.           E  E   +W            H..             E   +W
|--------------------|------------|--------------------|----------------|
|--------------------|------------|--------------------|----------------|
|--------------------|------------|--------------------|----------------|
|---------------7--9-|-(9)--------|--5---------------2-|-(2)------------|
|--2------------5--7-|-(7)--------|--3---------------0-|-(0)------------|
|--0-----------------|------------|--------------------|----------------|
|
| +E  E E E E E E  E   +W           +E   E E E E E E E   +Q.   Q.   +Q
|--------------------|------------|--------------------|----------------|
|--------------------|------------|--------------------|----------------|
|--------------------|------------|--------------------|----------------|
|-------5-4-7-5-4----|------------|--------5-4-7-5-4---|----------------|
|-(5)-7------------7-|-(7)--------|-(7)--7-----------7-|-(7)---5----(5)-|
|--------------------|------------|--------------------|----------------|


  N.C.
  +E   E E  E  E E  E  E    +W            +E   E E  E  E E  E  E
|------------------------|-------------|-------------------------|
|------------------------|-------------|-------------------------|
|--------7-----8-7-------|-------------|---------7-----8-7-------|
|-(2)--8---10------10--8-|--(8)--------|--(8)--8---10------10--8-|
|-(0)--------------------|-------------|-------------------------|
|------------------------|-------------|-------------------------|
|
| +E   E E  E  E E  E  E    +W            +E   E E  E  E E  E  E
|------------------------|-------------|-------------------------|
|------------------------|-------------|-------------------------|
|------------------------|-------------|-------------------------|
|--------8--7-10-8--7----|-------------|---------8--7-10-8--7----|
|-(5)-10--------------10-|-(10)--------|-(10)-10--------------10-|
|------------------------|-------------|-------------------------|


   +Q.   Q.   +Q     +E   E E  E  E E  E  E    +W
|------------------|------------------------|---------|
|------------------|------------------------|---------|
|------------------|--------7-----8-7-------|---------|
|--(8)---7----(7)--|-(7)--8---10------10--8-|--(8)----|
|------------------|------------------------|---------|
|------------------|------------------------|---------|
|
|  +Q.   Q.   +Q     +E   E E  E  E E  E  E    +W
|------------------|------------------------|---------|
|------------------|------------------------|---------|
|------------------|------------------------|---------|
|------------------|--------8--7-10-8--7----|---------|
|-(10)---8----(8)--|-(8)-10--------------10-|-(10)----|
|------------------|------------------------|---------|


                                               PM
   +E   E E  E  E E  E  E    +Q.   Q.   +Q     E E E E E E E E
|-------------------------|------------------|-----------------|
|-------------------------|------------------|-----------------|
|---------7-----8-7-------|------------------|-----4---5-4-----|
|--(8)--8---10------10--8-|--(8)---7----(7)--|---5---7-----7-5-|
|-------------------------|------------------|-----------------|
|-------------------------|------------------|-0---------------|
|
|                                              PM
|  +E   E E  E  E E  E  E    +Q.   Q.   +Q     E E E E E E E E
|-------------------------|------------------|-----------------|
|-------------------------|------------------|-----------------|
|-------------------------|------------------|-----------------|
|---------8--7-10-8--7----|------------------|-----5-4-7-5-4---|
|-(10)-10--------------10-|-(10)---8----(8)--|---7-----------7-|
|-------------------------|------------------|-0---------------|


      PM--------------------|
  +E  S S E S S E S S E E   E E E E E E E E   +Q.   Q.   +Q
|-------------------------|-----------------|-----------------|
|-------------------------|-----------------|-----------------|
|-------------------------|-----4---5-4-----|-----------------|
|-(5)---------------------|---5---7-----7-5-|-(5)---4----(4)--|
|-------------------------|-----------------|-----------------|
|-----0-0-0-0-0-0-0-0-0-0-|-0---------------|-----------------|
|
|     PM--------------------|
| +E  S S E S S E S S E E   E E E E E E E E   +Q.   Q.   +Q
|-------------------------|-----------------|-----------------|
|-------------------------|-----------------|-----------------|
|-------------------------|-----------------|-----------------|
|-------------------------|-----5-4-7-5-4---|-----------------|
|-(7)---------------------|---7-----------7-|-(7)---5----(5)--|
|-----0-0-0-0-0-0-0-0-0-0-|-0---------------|-----------------|


  PM                    PM--------------------|
  E E E E E E E E   +E  S S E S S E S S E E   E E E E E E E E
|-----------------|-------------------------|-----------------|
|-----------------|-------------------------|-----------------|
|-----4---5-4-----|-------------------------|-----4---5-4-----|
|---5---7-----7-5-|-(5)---------------------|---5---7-----7-5-|
|-----------------|-------------------------|-----------------|
|-0---------------|-----0-0-0-0-0-0-0-0-0-0-|-0---------------|
|
| PM                    PM--------------------|
| E E E E E E E E   +E  S S E S S E S S E E   E E E E E E E E
|-----------------|-------------------------|-----------------|
|-----------------|-------------------------|-----------------|
|-----------------|-------------------------|-----------------|
|-----5-4-7-5-4---|-------------------------|-----5-4-7-5-4---|
|---7-----------7-|-(7)---------------------|---7-----------7-|
|-0---------------|-----0-0-0-0-0-0-0-0-0-0-|-0---------------|


  +Q.   Q.   +Q     +E   E E  E  E E  E  E    +W
|-----------------|------------------------|---------|
|-----------------|------------------------|---------|
|-----------------|--------7-----8-7-------|---------|
|-(5)---4----(4)--|-(4)--8---10------10--8-|--(8)----|
|-----------------|------------------------|---------|
|-----------------|------------------------|---------|
|
| +Q.   Q.   +Q     +E   E E  E  E E  E  E    +W
|-----------------|------------------------|---------|
|-----------------|------------------------|---------|
|-----------------|------------------------|---------|
|-----------------|--------8--7-10-8--7----|---------|
|-(7)---5----(5)--|-(5)-10--------------10-|-(10)----|
|-----------------|------------------------|---------|


   +E   E E  E  E E  E  E    +Q.   Q.   +Q     +E   E E  E  E E  E  E
|-------------------------|------------------|------------------------|
|-------------------------|------------------|------------------------|
|---------7-----8-7-------|------------------|--------7-----8-7-------|
|--(8)--8---10------10--8-|--(8)---7----(7)--|-(7)--8---10------10--8-|
|-------------------------|------------------|------------------------|
|-------------------------|------------------|------------------------|
|
|  +E   E E  E  E E  E  E    +Q.   Q.   +Q     +E   E E  E  E E  E  E
|-------------------------|------------------|------------------------|
|-------------------------|------------------|------------------------|
|-------------------------|------------------|------------------------|
|---------8--7-10-8--7----|------------------|--------8--7-10-8--7----|
|-(10)-10--------------10-|-(10)---8----(8)--|-(8)-10--------------10-|
|-------------------------|------------------|------------------------|


   +W            +E   E E  E  E E  E  E    +Q.   Q.   +Q
|-------------|-------------------------|------------------|
|-------------|-------------------------|------------------|
|-------------|---------7-----8-7-------|------------------|
|--(8)--------|--(8)--8---10------10--8-|--(8)---7----(7)--|
|-------------|-------------------------|------------------|
|-------------|-------------------------|------------------|
|
|  +W            +E   E E  E  E E  E  E    +Q.   Q.   +Q
|-------------|-------------------------|------------------|
|-------------|-------------------------|------------------|
|-------------|-------------------------|------------------|
|-------------|---------8--7-10-8--7----|------------------|
|-(10)--------|-(10)-10--------------10-|-(10)---8----(8)--|
|-------------|-------------------------|------------------|


  F#5
  Gtr III
                                     ~~~~~~~
   H..           E         +E   +E   H            +Q
|-----------------------|-------------------------------|
|---------------17pb19==|=(17)-(17)r17pb19=======(17)r==|
|-11--------------------|-------------------------------|
|-----------------------|-------------------------------|
|--9--------------------|-------------------------------|
|-----------------------|-------------------------------|
|
| Gtrs I, II
|         PM  PM                             PM    PM-|
|  H      E E E  E         +H                E E   E  E
|-----------------------|-------------------------------|
|-----------------------|-------------------------------|
|-----------------------|-------------------------------|
|-----------------------|-------------------------------|
|--4--------4----4------|--(4)-----------------4--------|
|--2------2-2-2--2------|--(2)---------------2-2---2--2-|


     A5                          B5
   a  S   S  S  S  E  E  E  E  E  E        +Q    E  Q.    Q
|---------------------------------------|---------------------|
|-15h19p=15h19p15-----------------------|---------------------|
|-----------------17-16----16----16pb18r|=(16)----------------|
|-----------------------19----17--------|-------19-16---------|
|---------------------------------------|----------------12\--|
|---------------------------------------|---------------------|
|
|     H..                         E        +W
|---------------------------------------|---------------------|
|---------------------------------------|---------------------|
|---------------------------------------|---------------------|
|-----2---------------------------4-----|--(4)----------------|
|-----0---------------------------2-----|--(2)----------------|
|---------------------------------------|---------------------|


  F#5                                   A5               E5
  PM----------|  ~~~~~~~~~               TP    TP         ~~~~~~~~~
  E E E E E E E  E    +H.        Q       Q     Q   Q   E  E    +W
|-------------------|-----------------|------------------17-|-(17)----|
|-------------------|-----------------|---------------19----|---------|
|---------------[9]-|-(9)--------9/---|-16----18--19--------|---------|
|-------------------|-----------------|---------------------|---------|
|-------2-4-5-7-----|-----------------|---------------------|---------|
|-2-4-5-------------|-----------------|---------------------|---------|
|
|         PM  PM             PM  PM-|
| H       E E E  E    +H     E E E  E    H..              E    +W
|-------------------|-----------------|---------------------|---------|
|-------------------|-----------------|---------------------|---------|
|-------------------|-----------------|---------------------|---------|
|-------------------|-----------------|--2------------------|---------|
|-4---------4----4--|-(4)------4------|--0----------------2-|--(2)----|
|-2-------2-2-2--2--|-(2)----2-2-2--2-|-------------------0-|--(0)----|


  F#5
   T     T     T     T     T     T     T     T     T     T     T     T
   |------3-------|  |------3-------|  |------3-------|  |------3-------|
   S  S  S  S  S  S  S  S  S  S  S  S  S  S  S  S  S  S  S  S  S  S  S  S
|-21p17h21p17h21p17h21p17h21p17h21p17h21p16h21p16h21p16h21p16h21p16h21p16h=|
|--------------------------------------------------------------------------|
|--------------------------------------------------------------------------|
|--------------------------------------------------------------------------|
|--------------------------------------------------------------------------|
|--------------------------------------------------------------------------|
|
|                                      PM                PM
|  H                                   E        E        E        E
|--------------------------------------------------------------------------|
|--------------------------------------------------------------------------|
|--------------------------------------------------------------------------|
|--------------------------------------------------------------------------|
|--4--------------------------------------------4-----------------4--------|
|--2-----------------------------------2--------2--------2--------2--------|


   T      T     T
   |-------3-------|  |--3--|  |---3---|
   S   S  S  S  S  S  E  E  E  E  E    E  Q
|-21p=14h21p14h21p14------------------14------|
|--------------------14-14-14-14-14------14---|
|---------------------------------------------|
|---------------------------------------------|
|---------------------------------------------|
|---------------------------------------------|
|
|                              PM         PM|
| +H                           E    E     E E
|---------------------------------------------|
|---------------------------------------------|
|---------------------------------------------|
|---------------------------------------------|
|-(4)-------------------------------4---------|
|-(2)--------------------------2----2-----2-2-|


  A5                     B5                            F#5
                                                  TP    TP  TP           ~~~~~
              |--3--|
   H       E  S  S  S  E  E    E   Q.       +Q    Q     Q   Q   E  E  E  E
|-14------------------------|------------------------|-------------------------|
|---------17-15h17p15-14----|------------------------|-------------------------|
|------------------------16-|-14--16pb18r==(16)--16--|-14--16--14----14-16b18--|
|---------------------------|------------------------|------------16-----------|
|---------------------------|------------------------|-------------------------|
|---------------------------|------------------------|-------------------------|
|
|                                                               PM    PM
|  H..                    E   +W                        H       E  E  E  E
|---------------------------|------------------------|-------------------------|
|---------------------------|------------------------|-------------------------|
|---------------------------|------------------------|-------------------------|
|--2----------------------4-|-(4)--------------------|-------------------------|
|--0----------------------2-|-(2)--------------------|--4----------4-----4-----|
|---------------------------|------------------------|--2-------2--2--2--2-----|


                          A5               E5
    ~~~~
   +Q    E  Q.      Q      H         +H         +H      Q   Q
|-----------------------|--------------------|-----------------|
|-----------------------|--------------------|-----------------|
|-(16)--14---------14---|-16pb18r===(16)-----|-(16)----16\-----|
|----------16-----------|--------------------|-----------------|
|-----------------------|--------------------|-----------------|
|-----------------------|--------------------|-----------------|
|
|              PM   PM|
|  +H          E E  E E    H..             E    +W
|-----------------------|--------------------|-----------------|
|-----------------------|--------------------|-----------------|
|-----------------------|--------------------|-----------------|
|-----------------------|--2-----------------|-----------------|
|--(4)-----------4------|--0---------------2-|--(2)------------|
|--(2)---------2-2--2-2-|------------------0-|--(0)------------|


  C5              D5                  E5
    Q.     Q.   Q       Q.     Q.   E E   a  H     +Q    E  E
|-------------------|-------------------|---------------------|
|-------------------|-------------------|---------------------|
|-/12-----11----7---|-/12-----11----9s7-|-7h=9-----(9)\--9-11-|
|-------------------|-------------------|---------------------|
|-------------------|-------------------|---------------------|
|-------------------|-------------------|---------------------|
|
|   H..           E    +H..           E     +W
|-------------------|-------------------|---------------------|
|-------------------|-------------------|---------------------|
|-------------------|-------------------|---------------------|
|---5-------------7-|--(7)------------9-|---(9)---------------|
|---3-------------5-|--(5)------------7-|---(7)---------------|
|-------------------|-------------------|---------------------|


                           C5               D5                     E5
   E   E E  E E  E  E  E     Q.     Q.    Q      Q.     Q.    Q
|------------------------|--------------------|----------------------|
|----------12---------10-|-/12-----10---------|--------------12b13---|
|-12--11-9----9-11-12----|---------------12---|-11-----12------------|
|------------------------|--------------------|----------------------|
|------------------------|--------------------|----------------------|
|------------------------|--------------------|----------------------|
|
| +W                         H..            E   +H..               E
|------------------------|--------------------|----------------------|
|------------------------|--------------------|----------------------|
|------------------------|--------------------|----------------------|
|-(9)--------------------|---5--------------7-|-(7)----------------9-|
|-(7)--------------------|---3--------------5-|-(5)----------------7-|
|------------------------|--------------------|----------------------|


                                      C5              D5
                                      TP  TPTPTPTPTPTPTP
   +H.       Q        +H      H       E   E E E E E E E
|------------------|----------------|-------------------|
|-(12)------12b13--|-(12)----12\----|-8---------8-------|
|------------------|----------------|-----9-7-9---9-7-9-|
|------------------|----------------|-------------------|
|------------------|----------------|-------------------|
|------------------|----------------|-------------------|
|
|  +W                 +W              H..             E
|------------------|----------------|-------------------|
|------------------|----------------|-------------------|
|------------------|----------------|-------------------|
|--(9)-------------|--(9)-----------|-5---------------7-|
|--(7)-------------|--(7)-----------|-3---------------5-|
|------------------|----------------|-------------------|


                    E5
   TP  TPTPTP TPTPTPTP   TP TPTPTP TPTPTP
   E   E E E  E E E E    E  E E E  E E E   E
|---------------------|----------------------|
|-10---------10-------|-12--------12-----/13-|
|------9-7-9----9-7-9-|-----9-7-9----9-7-----|
|---------------------|----------------------|
|---------------------|----------------------|
|---------------------|----------------------|
|
| +H..              E   +W
|---------------------|----------------------|
|---------------------|----------------------|
|---------------------|----------------------|
|-(7)---------------9-|-(9)------------------|
|-(5)---------------7-|-(7)------------------|
|---------------------|----------------------|


                                        C5              D5
                                        TP  TPTPTPTPTPTPTP
        |--3--|        |--3--|
   +E   S  S  S  E  E  S  S  S  E  Q    E   E E E E E E E
|-------------------------------------|-------------------|
|-(13)-12h13p12-10-13-12h13p12-10-----|-8---------8-------|
|---------------------------------12--|-----9-7-9---9-7-9-|
|-------------------------------------|-------------------|
|-------------------------------------|-------------------|
|-------------------------------------|-------------------|
|
|  +W                                   H..             E
|-------------------------------------|-------------------|
|-------------------------------------|-------------------|
|-------------------------------------|-------------------|
|--(9)--------------------------------|-5---------------7-|
|--(7)--------------------------------|-3---------------5-|
|-------------------------------------|-------------------|


                       E5
   TP TPTPTP TPTPTPTP
   E  E E E  E E E E    E  E  E  E  E  E  E  E    H.          Q
|--------------------|-14-15-14-15-14-15-14-15-|-14tr15------14\-----|
|-10--------10-------|-------------------------|---------------------|
|-----9-7-9----9-7-9-|-------------------------|---------------------|
|--------------------|-------------------------|---------------------|
|--------------------|-------------------------|---------------------|
|--------------------|-------------------------|---------------------|
|
|                       PM---------------|
| +W                    E  E  E  E  E  E  E  E    H..             E
|--------------------|-------------------------|---------------------|
|--------------------|-------------------------|---------------------|
|--------------------|-------------------------|---------------------|
|-(7)----------------|-------------------------|---------------------|
|-(5)----------------|-----------------------2-|---------------------|
|--------------------|--0--0--0--0--0--0--0--0-|-----------------12\-|


    Q=190
    N.C.
    Gtr I
    PMTP   TP     PMTP   TP     PMTP   TP     PMTP   TP TP
    E Q.   H      E Q.   H      E Q.   H      E Q.   Q  Q
||--------------|-------------|-------------|----------------||
||o-------------|-------------|-------------|---------------o||
||--------------|-------------|-------------|----------------||
||----4----5----|---5---------|---4----5----|---5----9--7----||
||o-------------|-------------|-------------|---------------o||
||--0-----------|-0------5----|-0-----------|-0--------------||
|
|   Gtr II
|   PMTP   TP     PMTP   TP     PMTP   TP     PMTP   TP TP
|   E Q.   H      E Q.   H      E Q.   H      E Q.   Q  Q
||--------------|-------------|-------------|----------------||
||o-------------|-------------|-------------|---------------o||
||--------------|-------------|-------------|----------------||
||--------------|-------------|-------------|--------5-------||
||o---5----7----|---3----7----|---5----7----|---3-------5---o||
||--0-----------|-0-----------|-0-----------|-0--------------||


    PMTP   TP     PMTP   TP     PMTP   TP     PMTP   TP TP
    E Q.   H      E Q.   H      E Q.   H      E Q.   Q  Q
||--------------|-------------|-------------|----------------||
||o-------------|-------------|-------------|---------------o||
||----4----5----|---5---------|---4----5----|---5----9--7----||
||--------------|-------------|-------------|----------------||
||o-0-----------|-0------5----|-0-----------|-0-------------o||
||--------------|-------------|-------------|----------------||
|
|   PMTP   TP     PMTP   TP     PMTP   TP     PMTP   TP TP
|   E Q.   H      E Q.   H      E Q.   H      E Q.   Q  Q
||--------------|-------------|-------------|----------------||
||o-------------|-------------|-------------|---------------o||
||--------------|-------------|-------------|--------5-------||
||----5----7----|---3----7----|---5----7----|---3-------5----||
||o-0-----------|-0-----------|-0-----------|-0-------------o||
||--------------|-------------|-------------|----------------||


    PMTP   TP     PMTP   TP     PMTP   TP     PMTP   TP TP
    E Q.   H      E Q.   H      E Q.   H      E Q.   Q  Q
||--------------|-------------|-------------|----------------||
||o-------------|-------------|-------------|---------------o||
||--------------|-------------|-------------|----------------||
||----4----5----|---5---------|---4----5----|---5----9--7----||
||o-------------|-------------|-------------|---------------o||
||--0-----------|-0------5----|-0-----------|-0--------------||
|
|   PMTP   TP     PMTP   TP     PMTP   TP     PMTP   TP TP
|   E Q.   H      E Q.   H      E Q.   H      E Q.   Q  Q
||--------------|-------------|-------------|----------------||
||o-------------|-------------|-------------|---------------o||
||--------------|-------------|-------------|----------------||
||--------------|-------------|-------------|--------5-------||
||o---5----7----|---3----7----|---5----7----|---3-------5---o||
||--0-----------|-0-----------|-0-----------|-0--------------||


  TP   TP      TP   TP      TP    TP      TP  TP  TP
  H    H       H    H       H     H       Q   Q   H
|-----------|------------|-------------|---------------|
|-----------|------------|-------------|---------------|
|-----------|------------|-------------|---------------|
|------9----|--7----9----|-------12----|-13--10--12----|
|-7---------|------------|-10----------|---------------|
|-----------|------------|-------------|---------------|
|
| TP   TP      TP   TP      TP    TP      TP  TP  TP
| H    H       H    H       H     H       Q   Q   H
|-----------|------------|-------------|---------------|
|-----------|------------|-------------|---------------|
|-----------|------------|-------------|-----12--------|
|------9----|-10----9----|-------12----|-13------12----|
|-7---------|------------|-10----------|---------------|
|-----------|------------|-------------|---------------|


  TP   TP     TP   TP     TP   TP      TP
  H    H      H    H      H    H       H    E Q.
|-----------|-----------|-----------|--------------|
|-----------|-----------|-----------|--------------|
|-----------|-----------|-----------|--------------|
|------7----|-5----7----|------9----|--------------|
|-5---------|-----------|-7---------|--3----5------|
|-----------|-----------|-----------|--------------|
|
| TP   TP     TP   TP     TP   TP      TP
| H    H      H    H      H    H       H    E Q.
|-----------|-----------|-----------|--------------|
|-----------|-----------|-----------|--------------|
|-----------|-----------|-----------|--------------|
|------7----|-8----7----|------9----|--------------|
|-5---------|-----------|-7---------|-10----9------|
|-----------|-----------|-----------|--------------|


  E5                        G5
  W           +W             W            +W
|-----------|-------------|-------------|----------------|
|-----------|-------------|-------------|----------------|
|-----------|-------------|-------------|----------------|
|-----------|-------------|-------------|----------------|
|-2---------|-(2)---------|--5----------|-(5)------------|
|-0---------|-(0)---------|--3----------|-(3)------------|
|
| TP   TP      TP    TP      TP    TP      TP   TP  TP
| H    H       H     H       H     H       Q    Q   H
|-----------|-------------|-------------|----------------|
|-----------|-------------|-------------|----------------|
|-----------|-------------|-------------|------12--------|
|------9----|-10-----9----|-------12----|-13-------12----|
|-7---------|-------------|-10----------|----------------|
|-----------|-------------|-------------|----------------|


  D5                        E5          N.C.
                                         TP   TP
  W           +W            W            H    H
|-----------|-------------|-----------|------------|
|-----------|-------------|-----------|------------|
|-----------|-------------|-----------|------------|
|-7---------|-(7)---------|-----------|------------|
|-5---------|-(5)---------|-2---------|--3----5----|
|-----------|-------------|-0---------|------------|
|
| TP   TP      TP    TP     TP   TP      TP   TP
| H    H       H     H      H    H       H    H
|-----------|-------------|-----------|------------|
|-----------|-------------|-----------|------------|
|-----------|-------------|-----------|------------|
|------7----|--8-----7----|------9----|------------|
|-5---------|-------------|-7---------|-10----9----|
|-----------|-------------|-----------|------------|


  Q=125
  A5                G5                 A5
                                                 |-3-|
  Q.   E  Q  E  E    Q.   E  Q  E  E    Q.   E E S S S  E E
|-----------------|------------------|-----------------------|
|-----------------|------------------|-----------------------|
|-----------------|------------------|-------7-9-7h9p7-------|
|-7----9-10--9h10-|-------9-10--9h10-|-10--------------10-9--|
|-----------------|-10---------------|-----------------------|
|-----------------|------------------|-----------------------|
|
| W                  W                  W
|-----------------|------------------|-----------------------|
|-----------------|------------------|-----------------------|
|-----------------|------------------|-----------------------|
|-----------------|------------------|-----------------------|
|-7---------------|--5---------------|--7--------------------|
|-5---------------|--3---------------|--5--------------------|


  G5                  N.C.
   Q.   E  E  E  Q    Q.   E  Q  E  E    Q.   E  Q  E  E
|-------------------|-----------------|------------------|
|-------------------|-----------------|------------------|
|-------------------|-----------------|------------------|
|-------9-10--9--7--|-----------------|------------------|
|-10----------------|-7----9-10--9h10-|-------9-10--9h10-|
|-------------------|-----------------|-10---------------|
|
|                     <                  <
|  H      +E  Q.      H       H          H.         Q
|-------------------|-----------------|------------------|
|-------------------|-----------------|------------------|
|-------------------|-----------------|------------------|
|-------------------|-----------------|------------------|
|--5------(5)-------|-7---------------|--9---------------|
|--3------(3)-------|-----------------|------------------|


            |-3-|
   Q.   E E S S S  E E    Q.   E  E E Q
|----------------------|------------------|
|----------------------|------------------|
|----------------------|------------------|
|-------7-9-7h9p7------|------------------|
|-10--------------10-9-|-------9-10-9-7\--|
|----------------------|-10---------------|
|
|  <                      <
|  H.              Q      W
|----------------------|------------------|
|----------------------|------------------|
|----------------------|------------------|
|----------------------|------------------|
|--7-------------------|--5---------------|
|----------------------|------------------|


  Q=175
  E5
    PM----|   PM  PM|     PM--|   PM         PM--|   PM  PM|
  E S   S E E E E E E   E S S E E E E Q    E S S E E E E E E
|---------------------|------------------|-------------------|
|---------------------|------------------|-------------------|
|---------------------|------------------|-------------------|
|---------------------|------------------|-------------------|
|-2---------2---2-----|-2-------2---2----|-2-------2---2-----|
|-0-0---0-0-0-0-0-0-0-|-0-0-0-0-0-0-0----|-0-0-0-0-0-0-0-0-0-|
|
|                                            PM--|   PM  PM|
| E H..                 W                  E S S E E E E E E
|---------------------|------------------|-------------------|
|---------------------|------------------|-------------------|
|---------------------|------------------|-------------------|
|---------------------|------------------|-------------------|
|-2-------------------|------------------|-2-------2---2-----|
|-0-------------------|------------------|-0-0-0-0-0-0-0-0-0-|


                                                  A5 Bb5 A5 G5
    PM--|   PM  PM|     PM--|   PM  PM|     PM--|
  E S S E E E E E E   E S S E E E E E E   E S S E Q  E   E  E
|-------------------|-------------------|----------------------|
|-------------------|-------------------|----------------------|
|-------------------|-------------------|----------------------|
|-------------------|-------------------|----------------------|
|-2-------2---2-----|-2-------2---2-----|-2-------7--8---7--5--|
|-0-0-0-0-0-0-0-0-0-|-0-0-0-0-0-0-0-0-0-|-0-0-0-0-5--6---5--3--|
|
|   PM--|   PM  PM----------|   PM  PM----------|
| E S S E E E E E E   E S S E E E E E E   E S S E Q  E   E  E
|-------------------|-------------------|----------------------|
|-------------------|-------------------|----------------------|
|-------------------|-------------------|----------------------|
|-------------------|-------------------|----------------------|
|-2-------2---2-----|---------2---2-----|---------7--8---7--5--|
|-0-0-0-0-0-0-0-0-0-|-0-0-0-0-0-0-0-0-0-|-0-0-0-0-5--6---5--3--|


    E5                                      C5
    PM    PM  PM  PM    PM    PM  PM        PM    PM  PM  PM
    E E   E E E E E E   E E   E E E E E E   E E   E E E E E E
||--------------------|-------------------|-------------------|
||o-------------------|-------------------|-------------------|
||------------------4-|-------------------|-----------------4-|
||----2-----5---2-----|---5-----7---5-4-5-|---2-----5---2-----|
||o-------------------|-------------------|-3-----3---3---3---|
||--0-----0---0---0---|-0-----0---0-------|-------------------|
|
|   PM----|   PM  PM----------|   PM  PM----------|   PM  PM|
|   E S S E E E E E E   E S S E E E E E E   E S S E E E E E E
||--------------------|-------------------|-------------------|
||o-------------------|-------------------|-------------------|
||--------------------|-------------------|-------------------|
||--------------------|-------------------|---------5---5-----|
||o---------2---2-----|---------2---2-----|-3-3-3-3-3-3-3-3-3-|
||--0-0-0-0-0-0-0-0-0-|-0-0-0-0-0-0-0-0-0-|-------------------|


  D5                  E5
  PM    PM  PM        PM    PM  PM  PM    PM    PM  PM
  E E   E E E E E E   E E   E E E E E E   E E   E E E E E E
|-------------------|-------------------|-------------------|
|-------------------|-------------------|-------------------|
|-------------------|-----------------4-|-------------------|
|---5-----7---5-4---|---2-----5---2-----|---5-----7---5-4-5-|
|-5-----5---5-----5-|-------------------|-------------------|
|-------------------|-0-----0---0---0---|-0-----0---0-------|
|
| PM----|   PM  PM----------|   PM  PM----------|   PM  PM|
| E S S E E E E E E   E S S E E E E E E   E S S E E E E E E
|-------------------|-------------------|-------------------|
|-------------------|-------------------|-------------------|
|-------------------|-------------------|-------------------|
|---------7---7-----|-------------------|-------------------|
|-5-5-5-5-5-5-5-5-5-|---------2---2-----|---------2---2-----|
|-------------------|-0-0-0-0-0-0-0-0-0-|-0-0-0-0-0-0-0-0-0-|


                     1.                       2.
  C5                  A5
  PM    PM  PM  PM    PM    PM                 PM  PM
  E E   E E E E E E   E E   E Q.     +Q        E E E Q.   +Q
|-------------------|-----------------------||------------------|
|-------------------|----------------------o||------------------|
|-----------------4-|-----------------------||------------------|
|---2-----5---2-----|---5-----7------(7)----||---5---7----(7)---|
|-3-----3---3---3---|-0-----0--------------o||-0---0------------|
|-------------------|-----------------------||------------------|
|
| PM----|   PM  PM----------|    PM   PM-|
| E S S E E E E E E   E S S E E  E E  E  E     W
|-------------------|-----------------------||------------------|
|-------------------|----------------------o||------------------|
|-------------------|-----------------------||------------------|
|---------5---5-----|---------2----2--------||-2----------------|
|-3-3-3-3-3-3-3-3-3-|-0-0-0-0-0--0-0--0--0-o||-0----------------|
|-------------------|-----------------------||------------------|


  N.C.
  +E   E E  E  E E  E  E    +W            +E   E E  E  E E  E  E
|------------------------|-------------|-------------------------|
|------------------------|-------------|-------------------------|
|--------7-----8-7-------|-------------|---------7-----8-7-------|
|-(7)--8---10------10--8-|--(8)--------|--(8)--8---10------10--8-|
|------------------------|-------------|-------------------------|
|------------------------|-------------|-------------------------|
|
| +E   E E  E  E E  E  E    +W            +E   E E  E  E E  E  E
|------------------------|-------------|-------------------------|
|------------------------|-------------|-------------------------|
|------------------------|-------------|-------------------------|
|-(2)----8--7-10-8--7----|-------------|---------8--7-10-8--7----|
|-(0)-10--------------10-|-(10)--------|-(10)-10--------------10-|
|------------------------|-------------|-------------------------|


   +Q.   Q.   +Q     +E   E E  E  E E  E  E    +W
|------------------|------------------------|---------|
|------------------|------------------------|---------|
|------------------|--------7-----8-7-------|---------|
|--(8)---7----(7)--|-(7)--8---10------10--8-|--(8)----|
|------------------|------------------------|---------|
|------------------|------------------------|---------|
|
|  +Q.   Q.   +Q     +E   E E  E  E E  E  E    +W
|------------------|------------------------|---------|
|------------------|------------------------|---------|
|------------------|------------------------|---------|
|------------------|--------8--7-10-8--7----|---------|
|-(10)---8----(8)--|-(8)-10--------------10-|-(10)----|
|------------------|------------------------|---------|


                                               PM
   +E   E E  E  E E  E  E    +Q.   Q.   +Q     E E E E E E E E
|-------------------------|------------------|-----------------|
|-------------------------|------------------|-----------------|
|---------7-----8-7-------|------------------|-----4---5-4-----|
|--(8)--8---10------10--8-|--(8)---7----(7)--|---5---7-----7-5-|
|-------------------------|------------------|-----------------|
|-------------------------|------------------|-0---------------|
|
|                                              PM
|  +E   E E  E  E E  E  E    +Q.   Q.   +Q     E E E E E E E E
|-------------------------|------------------|-----------------|
|-------------------------|------------------|-----------------|
|-------------------------|------------------|-----------------|
|---------8--7-10-8--7----|------------------|-----5-4-7-5-4---|
|-(10)-10--------------10-|-(10)---8----(8)--|---7-----------7-|
|-------------------------|------------------|-0---------------|


      PM--------------------|
  +E  S S E S S E S S E E   E E E E E E E E   +Q.   Q.   +Q
|-------------------------|-----------------|-----------------|
|-------------------------|-----------------|-----------------|
|-------------------------|-----4---5-4-----|-----------------|
|-(5)---------------------|---5---7-----7-5-|-(5)---4----(4)--|
|-------------------------|-----------------|-----------------|
|-----0-0-0-0-0-0-0-0-0-0-|-0---------------|-----------------|
|
|     PM--------------------|
| +E  S S E S S E S S E E   E E E E E E E E   +Q.   Q.   +Q
|-------------------------|-----------------|-----------------|
|-------------------------|-----------------|-----------------|
|-------------------------|-----------------|-----------------|
|-------------------------|-----5-4-7-5-4---|-----------------|
|-(7)---------------------|---7-----------7-|-(7)---5----(5)--|
|-----0-0-0-0-0-0-0-0-0-0-|-0---------------|-----------------|


  PM                    PM--------------------|
  E E E E E E E E   +E  S S E S S E S S E E   E E E E E E E E
|-----------------|-------------------------|-----------------|
|-----------------|-------------------------|-----------------|
|-----4---5-4-----|-------------------------|-----4---5-4-----|
|---5---7-----7-5-|-(5)---------------------|---5---7-----7-5-|
|-----------------|-------------------------|-----------------|
|-0---------------|-----0-0-0-0-0-0-0-0-0-0-|-0---------------|
|
| PM                    PM--------------------|
| E E E E E E E E   +E  S S E S S E S S E E   E E E E E E E E
|-----------------|-------------------------|-----------------|
|-----------------|-------------------------|-----------------|
|-----------------|-------------------------|-----------------|
|-----5-4-7-5-4---|-------------------------|-----5-4-7-5-4---|
|---7-----------7-|-(7)---------------------|---7-----------7-|
|-0---------------|-----0-0-0-0-0-0-0-0-0-0-|-0---------------|


  +Q.   Q.   +Q     +E   E E  E  E E  E  E    +W
|-----------------|------------------------|---------|
|-----------------|------------------------|---------|
|-----------------|--------7-----8-7-------|---------|
|-(5)---4----(4)--|-(4)--8---10------10--8-|--(8)----|
|-----------------|------------------------|---------|
|-----------------|------------------------|---------|
|
| +Q.   Q.   +Q     +E   E E  E  E E  E  E    +W
|-----------------|------------------------|---------|
|-----------------|------------------------|---------|
|-----------------|------------------------|---------|
|-----------------|--------8--7-10-8--7----|---------|
|-(7)---5----(5)--|-(5)-10--------------10-|-(10)----|
|-----------------|------------------------|---------|


   +E   E E  E  E E  E  E    +Q.   Q.   +Q     +E   E E  E  E E  E  E
|-------------------------|------------------|------------------------|
|-------------------------|------------------|------------------------|
|---------7-----8-7-------|------------------|--------7-----8-7-------|
|--(8)--8---10------10--8-|--(8)---7----(7)--|-(7)--8---10------10--8-|
|-------------------------|------------------|------------------------|
|-------------------------|------------------|------------------------|
|
|  +E   E E  E  E E  E  E    +Q.   Q.   +Q     +E   E E  E  E E  E  E
|-------------------------|------------------|------------------------|
|-------------------------|------------------|------------------------|
|-------------------------|------------------|------------------------|
|---------8--7-10-8--7----|------------------|--------8--7-10-8--7----|
|-(10)-10--------------10-|-(10)---8----(8)--|-(8)-10--------------10-|
|-------------------------|------------------|------------------------|


   +W            +E   E E  E  E E  E  E    +Q.   E H
|-------------|-------------------------|---------------|
|-------------|-------------------------|---------------|
|-------------|---------7-----8-7-------|---------------|
|--(8)--------|--(8)--8---10------10--8-|--(8)---7------|
|-------------|-------------------------|---------------|
|-------------|-------------------------|---------------|
|
|  +W            +E   E E  E  E E  E  E    +Q.   E H
|-------------|-------------------------|---------------|
|-------------|-------------------------|---------------|
|-------------|-------------------------|---------------|
|-------------|---------8--7-10-8--7----|---------------|
|-(10)--------|-(10)-10--------------10-|-(10)---8------|
|-------------|-------------------------|---------------|


                         H.=H
  E  E E  E  E E  E  E    +H..       S S
|----------------------|
Добавлено: 23.02.2012
Вам также может быть интересно:
Другие материалы по этой песне:

Страница создана 23.02.2012
http://primanota.ru/ceremonial-oath/the-day-i-buried-chords.htm
Привет, Гость.
Предлагаем пройти революционный курс по гитаре.
Подарок от PrimaNota.Ru, забирай!