PrimaNota.ru - самый крупный в мире бесплатный архив песенных текстов, аккордов, табулатур и нот


Cerebral Bore - Entombed In Butchered Bodies - текст песни, таба, видео

Регистрация Запомнить меня
Войти через:  Facebook Google Twitter Vk Yandex Mail.ru

Cerebral Bore - Entombed In Butchered Bodies - текст песни, таба, видео

Печатать
Просмотров: 219
Уроки эстрадного вокала в Санкт-Петербурге
Cerebral Bore 
"Entombed In Butchered Bodies"
Track #4 off the band's debut release, Manical Miscreation 2010.
This is my favorite track, though the whole album is a masterpiece. 

Drop C tuning 

|---------------------------------|
|---------------------------------|
|-----4-----4---------4-----4-----|
|-----3-----3---------3-----3-----|
|-0-1---0-1---0-1-0-1---0-1---0-1-|
|-0-1---0-1---0-1-0-1---0-1---0-1-|
pm. .   . .   . . . .   . .   . .         

                       1,3                 2               4 
|-------------------------|-----------------|---------------|
|-------------------------|-----------------|---------------|
|-------------------------|-----------------|---------------|
|---7-6-7-----------------|---7-6-7-/10--6--|---7-6-7-------|
|-0-5-4-5-----------------|-0-5-4-5-/8---4--|-0-5-4-5-/8--7-|
|-0-------9-10-8-9-7-8-6-7|-0---------------|-0-------/8--7-|
pm.       . .  . . . . . .  .                 . 

|-------------------|----------------|-----------------|
|-------------------|----------------|-----------------|
|-------------------|----------------|-----------------|
|----7\6/7----7\6/7-|----7\6/7/10--6-|----7\6/7--------|
|-0--5\4/5--0-5\4/5-|-0--5\4/5/8---4-|-0--5\4/5-/8---7-|
|-0---------0-------|-0--------------|-0--------/8---7-|
pm.         .         .                .
                                                        (x2)

|--------------------------------------|
|--------------------------------------|
|--------------------------------------|
|--------------------------------------|
|-3-2-5566--3-2-5566-------------------|
|-3-2-------3-2-------3322335566553322-|
pm. .       . .                         (x4) 

 
|--------------------------------------------|
|--------------------------------------------|
|--------------------------------------------|
|--------------------------------------------|
|--------------------------------------------|
|-630--520--520-6h9-5h8--0--630--0--520--520-| 
pm...  ...  ...          .  ...  .  ...  ...
  (3)  (3)  (3)             (3)     (3)  (3) triplets 
                                                   (x4) 

|--------------------------------------|
|--------------------------------------|
|--------------------------------------|
|--------------------------------------|
|-3-2-5566--3-2-5566-------------------|
|-3-2-------3-2-------3322335566553322-|
pm. .       . .                         (x4) 

                                             1,3             2      
|-------------------------------------|---------|-------------|--------------
|-------------------------------------|---------|-------------|--------------
|-4h5p4h5p4-------4h5p4h5p4-3h4p3h4p3-|---------|-------------|--------------
|-------------------------------------|---------|-------------|--------------
|------------5-6----------------------|-5-6-4-5-|-5-6-4-5-3-4-|-5-6-4-5-4-5-3
|------------5-6----------------------|-5-6-4-5-|-5-6-4-5-3-4-|-5-6-4-5-4-5-3
pm           . .                        . . . .   . . . . . .   . . . . . . .
 
             4
|-------------|
|-------------|
|-------------|
|-------------|
|-4-3-------3-|
|-4-3-------3-| 
pm. 

|--------------------------|
|--------------------------|
|--------------------------|
|--------------------------|
|--3h6------2h5-1h4--------|
|------0000---------000000-|
                            (x4)  

|---------------------|---------------------|
|---------------------|---------------------|
|---------------------|---------------------|
|---------------------|---------------------|
|-9-------8-----------|-9-------8-----------|
|---12-11---11-10-7br-|---12-11---11-10-7br-| 
                                             (x4)  
                                               

|-------------------------------------------------------------------------|
|-------------------------------------------------------------------------|
|-----------------7-6-----6-3-----3-----------------7-9-9-9-9-10-10-10-10-|
|-5---------------7-6-6-6-6-3-3-3-3-4-4-4-4-4-4-4-4-7-9-9-9-9-10-10-10-10-|
|-5-5-5-5-5-5-5-5-5-4-4-4-4-1-1-1-1-4-4-4-4-4-4-4-4-5-7-7-7-7-8--8--8--8--|
|-5-5-5-5-5-5-5-5-------------------4-4-4-4-4-4-4-4-----------------------|
pm  . . . . . . .     . .     . .   

|-------------------------------------------------------------------------|
|-------------------------------------------------------------------------|
|-----------------7-6-6-6-6-3-3-3-3-----------------7-9-9-9-9-10-10-10-10-|
|-5-5-5-5-5-5-5-5-7-6-6-6-6-3-3-3-3-4-4-4-4-4-4-4-4-7-9-9-9-9-10-10-10-10-|
|-5-5-5-5-5-5-5-5-5-4-4-4-4-1-1-1-1-4-4-4-4-4-4-4-4-5-7-7-7-7-8--8--8--8--|
|-5-5-5-5-5-5-5-5-------------------4-4-4-4-4-4-4-4-----------------------|


|-----------------------------------------------------------------|
|-----------------------------------------------------------------|
|-7-7-7-7-7-7-7-7-7-7-7-7-7-7-7-7-6-6-6-6-6-6-6-6-6-6-6-6-6-6-6-6-|
|-5-5-5-5-5-5-5-5-5-5-5-5-8-8-8-8-4-4-4-4-4-4-4-4-4-4-4-4-4-4-4-4-|
|-5-5-5-5-5-5-5-5-5-5-5-5-5-5-5-5-4-4-4-4-4-4-4-4-4-4-4-4-4-4-4-4-|
|-5-5-5-5-5-5-5-5-5-5-5-5-5-5-5-5-4-4-4-4-4-4-4-4-4-4-4-4-4-4-4-4-|
                                                                   (x2) 

|---------------------------------------------------------------------------|
|---------------------------------------------------------------------------|
|---------------------------------------------------------------------------|
|---------------------------------------------------------------------------|
|--------------55555444445555551111144444-------------555557777775555888777-|
|-555555555555----------------------------44444444444-----------------------|
'                                                                        (x2) 

|-------------------------------------------------------------------------|
|-------------------------------------------------------------------------|
|-----------------7\6-----6\3-----------------------7/9-----9/10----------|
|-5-------5-------7\6-6-6-6\3-3-3-3-4-------4-------7/9-9-9-9/10-10-10-10-|
|-5-5-5-5-5-5-5-5-5\4-4-4-4\1-1-1-1-4-4-4-4-4-4-4-4-5/7-7-7-7/8--8--8--8--|
|-5-5-5-5-5-5-5-5-------------------4-4-4-4-4-4-4-4-----------------------|
pm  . . .   . . .     . .     . . .   . . .   . . .     . .      .  .  . 
                                                                         (x2) 

|-----------------------------------|
|-----------------------------------|
|-----------------------------------|
|-55664455-----55664455-------------|
|----------5-6----------5-6-4-5-3-4-|
|----------5-6----------5-6-4-5-3-4-|
pm         . .          . . . . . . 

|-----------------------------------| 
|-----------------------------------|
|-----------------------------------|
|-55664455---------55664455---------|
|---------6655-5-6----------5-6-4-5-|
|--------------5-6----------5-6-4-5-|
pm             . .          . . . . 
                                     (x2) 

|-----------------------------------|
|-----------------------------------|
|-----------------------------------|
|-55664455-----55664455-------------|
|----------5-6----------5-6-4-5-3-4-|
|----------5-6----------5-6-4-5-3-4-|
pm         . .          . . . . . . 
                                     (x2) 

|-------------------------------------|
|-------------------------------------|
|-------------------------------------|
|-55664455------55664455--------------|
|-------------------------------------|
|----------5566----------556644553344-|
                                       (x2) 

|-------------------------------------|
|-------------------------------------|
|-------------------------------------|
|-55664455----------55664455----------|
|---------6655------------------------|
|--------------5566----------55664455-|
                                       (x2) 

|----------------------------------------------------------|
|----------------------------------------------------------|
|----------------------------------------------------------|
|-------6-----5----------------------6-----5---------------|
|-0-0-0-6-0-0-5-0-0------------0-0-0-6-0-0-5-0-0-5h8p5h8p5-|
|-0-0-0-6-0-0-5-0-0-1h4p1h4p1--0-0-0-6-0-0-5-0-0-----------|
pm. . .   . .   . .            . . .   . .   . .  


|--------------------------------------------------|
|--------------------------------------------------|
|--------------------------------------------------|
|-------6-----5------------------6-----5-----------|
|-0-0-0-6-0-0-5-0-0-1-3-1--0-0-0-6-0-0-5-0-0-1-3-4-|
|-0-0-0-6-0-0-5-0-0-3-5-3--0-0-0-6-0-0-5-0-0-3-5-6-|
pm. . .   . .   . .        . . .   . .   . . 

|----------------------------------------------------------|
|----------------------------------------------------------|
|----------------------------------------------------------|
|-------6-----5----------------------6-----5---------------|
|-0-0-0-6-0-0-5-0-0------------0-0-0-6-0-0-5-0-0-5h8p5h8p5-|
|-0-0-0-6-0-0-5-0-0-1h4p1h4p1--0-0-0-6-0-0-5-0-0-----------|
pm. . .   . .   . .            . . .   . .   . .

|---------------------------------------------------|
|---------------------------------------------------|
|---------------------------------------------------|
|-------6-----5------------------6-----5------------|
|-0-0-0-6-0-0-5-0-0-1-3-1--0-0-0-6-0-0-5-0-0--------|
|-0-0-0-6-0-0-5-0-0-3-5-3--0-0-0-6-0-0-5-0-0-12\\\\-|
pm. . .   . .   . .        . . .   . .   . .

|-----------------------------------| 
|-----------------------------------|
|-----------------------------------|
|-55664455---------55664455---------|
|---------6655-5-6----------5-6-4-5-|
|--------------5-6----------5-6-4-5-|
pm             . .          . . . .   

|-----------------------------------|
|-----------------------------------|
|-----------------------------------|
|-55664455-----55664455-------------|
|----------5-6----------5-6-4-5-3-4-|
|----------5-6----------5-6-4-5-3-4-|
pm         . .          . . . . . .  

Oh shit yeah! 
|----------------------------------------|
|----------------------------------------|
|----------------------------------------|
|----------------------------------------|
|-0-0-0-0-0------------------------------|
|-0-0-0-0-0-/7-6-0--6h7p6h7p6--6h7p6h7p6-|
pm. . . . .    . . 

Opee Oppa Pee Pee!!! 
|---------------------------------------------------------|
|---------------------------------------------------------|
|---------------------------------------------------------|
|---------------------------------------------------------|
|-------------------------------------------6h9---6h9-5h8-|
|-0-/7-6-0--6h7p6h7p6--6h7p6h7p6---0-/7-6-0-----0---------|
pm.    . .                         .    . .     .         
                                                           (x4) 
|-----------|
|-----------|
|-----------|
|-8----7--6-|
|-6----5--4-|
|-----------|

|--------------------------|
|--------------------------|
|--------------------------|
|--------------------------|
|--3h6------2h5-1h4--------|
|------0000---------000000-|
                            (x4) 

|-----------------------------|
|-----------------------------|
|-----------------------------|
|-----------------------------|
|--9h12------8h11-7h10--------|
|-------0000-----------000000-|
                               (x4)

|--------------------------------------|
|--------------------------------------|
|--------------------------------------|
|--------------------------------------|
|-1-3-2-3-1-3-2-3-555------------------|
|-1-3-2-3-1-3-2-3----66655566622222222-|
pm. . . . . . . .
                                        (x2) 

|---------------------|
|---------------------|
|---------------------|
|---------------------|
|---------------------|
|-0-/7-6-0--6h7p6h7p6-| 
pm.    . .          

|---------------------------------------------------------|
|---------------------------------------------------------|
|---------------------------------------------------------|
|---------------------------------------------------------|
|-------------------------------------------6h9---6h9-5h8-|
|-0-/7-6-0--6h7p6h7p6--6h7p6h7p6---0-/7-6-0-----0---------|
pm.    . .                         .    . .     .         
                                                           (x4)

|-------------------------------|
|-------------------------------|
|-------------------------------|
|-------------------------------|
|-------------------------------|
|-0-/7-6-0--6h7p6h7p6-6h7p6h7p6-|
pm.    . .
                            1                         2
|----------------------------|-------------------------|
|----------------------------|-------------------------|  
|----------------------------|-------------------------|
|----------------------------|-------------------------|
|-555-----------555----------|-3h6------2h5-1h4--------|
|----666555666-----666555666-|-----0000---------000000-| 
  

|-------------------------------------------------------------|
|-------------------------------------------------------------|
|-----4-----4---------4-----4---------------------------------|
|-----3-----3---------3-----3---------------------------------|
|-0-1---0-1---0-1-0-1---0-1---0-1-222-----------222-----------|
|-0-1---0-1---0-1-0-1---0-1---0-1-----333222333-----333222333-|
pm. .   . .   . . . .   . .   . .                              

|-------------------|
|-------------------|
|-----4-----4-------|
|-----3-----3-------|
|-0-1---0-1---0-1-0-|
|-0-1---0-1---0-1-0-|
pm. .   . .   . . .     

Le end! 
Добавлено: 20.09.2013
Другие материалы по этой песне:

Страница создана 20.09.2013
http://primanota.ru/cerebral-bore/entombed-in-butchered-bodies-chords.htm
Привет, Гость.
Предлагаем пройти революционный курс по гитаре.
Подарок от PrimaNota.Ru, забирай!