PrimaNota.ru - самый крупный в мире бесплатный архив песенных текстов, аккордов, табулатур и нот


Cerebral Ballzy - On The Run - таба, видео

Регистрация Запомнить меня
Войти через:  Facebook Google Twitter Vk Yandex Mail.ru

Cerebral Ballzy - On The Run - таба, видео

Печатать
Просмотров: 206
-----------------------------------------------------------------------------
                           On the Run - Cerebral Ballzy
-----------------------------------------------------------------------------

Tabbed by: Corey D.
Email: xxda4kxx@aim.com

http://cerebralballzy.com/ - Band Website

--------------------
Tuning:  Standard
--------------------

KEY:

/ - Slide up
\ - Slide Down
x - String mute

INTRO
    C#5  B5   D5   B5  C#5
E|-----------------------------|
B|-----------------------------|
G|---6--\444--/7--\444--6------|
D|---6--\444--/7--\444--6------|  X 23
A|---4--\222--/5--\222--4------|
E|-----------------------------|
    C#5 C#5
E|-----------------------------|
B|-----------------------------|
G|---6---66--------------------|
D|---6---66--------------------|  X 2
A|---4---44--------------------|
E|-----------------------------|

E|-----------------------------|
B|-----------------------------|
G|-----------------------------|
D|-----------------------------|  X 8
A|--4-2-2-2-5-2-2-2-4----------|
E|-----------------------------|


CHORUS
   D5       B5  F#5        B5  A5       B5   A5      B5
E|----------------------------------------------------------------|
B|----------------------------------------------------------------|
G|--7--x---------11--x--------------------------------------------|
D|--7--x--9--99--11--x--9--999--7--x--9--999--7--x--9--999--------|  X 3
A|--5--x--9--99---9--x--9--999--7--x--9--999--7--x--9--999--------|
E|--------7--77---------7--777--5--x--7--777--5--x--7--777--------|


VERSE
     G#5     C#m      B5     E5     B5     E5
E|---------14141414------------------------------------------------|
B|---------15151515------------------------------------------------|
G|---------16161616---------99999---------99999--------------------|
D|--44444--16161616--99999--99999--99999--99999--------------------|  X 4
A|--44444--14141414--99999--77777--99999--77777--------------------|
E|--22222------------77777---------77777---------------------------|


The verse should be strummed quite fast.  
Verse was the hardest part to listen to since there
is a collision of noise that blocks out most of the the guitar.  
I listened closely and this is how the verse should be played.


CHORUS
   D5       B5  F#5        B5  A5       B5   A5      B5
E|----------------------------------------------------------------|
B|----------------------------------------------------------------|
G|--7--x---------11--x--------------------------------------------|
D|--7--x--9--99--11--x--9--999--7--x--9--999--7--x--9--999--------|  X 3
A|--5--x--9--99---9--x--9--999--7--x--9--999--7--x--9--999--------|
E|--------7--77---------7--777--5--x--7--777--5--x--7--777--------|


VERSE
     G#5     C#m      B5     E5     B5     E5
E|---------14141414------------------------------------------------|
B|---------15151515------------------------------------------------|
G|---------16161616---------99999---------99999--------------------|
D|--44444--16161616--99999--99999--99999--99999--------------------|  X 4
A|--44444--14141414--99999--77777--99999--77777--------------------|
E|--22222------------77777---------77777---------------------------|


ENDING
   C#5 B5 D5 B5 C#5
E|----------------------|
B|----------------------|
G|--6--4--7--4--6-------|
D|--6--4--7--4--6-------|  X 4
A|--4--2--5--2--4-------|
E|----------------------|
    Pm Pm Pm Pm Pm

    C#5  B5   D5   B5  C#5
E|-----------------------------|
B|-----------------------------|
G|---6--\444--/7--\444--6------|
D|---6--\444--/7--\444--6------|  X 8
A|---4--\222--/5--\222--4------|
E|-----------------------------|


ENDING CHORD
   F5
E|------|
B|------|
G|------|
D|--3---|
A|--3---|
E|--1---|


Please email me for any corrections, thanks.
Добавлено: 16.04.2012
Вам также может быть интересно:
Другие материалы по этой песне:
  • Аккорды и текст

Страница создана 16.04.2012
http://primanota.ru/cerebral-ballzy/on-the-run-chords.htm
Привет, Гость.
Предлагаем пройти революционный курс по гитаре.
Подарок от PrimaNota.Ru, забирай!