PrimaNota.ru - самый крупный в мире бесплатный архив песенных текстов, аккордов, табулатур и нот


Cerebral Ballzy - Dont Tell Me What To Do - таба, видео

Регистрация Запомнить меня
Войти через:  Facebook Google Twitter Vk Yandex Mail.ru

Cerebral Ballzy - Dont Tell Me What To Do - таба, видео

Печатать
Просмотров: 83
Artist: Cerebral Ballzy

Tuning: Standard(EADGBe)

NOTE:
I love these guess. Best song on the album.
the 't' means 10.


INTRO:
e|--------------------------------------------------------------|
B|--------------------------------------------------------------|
G|---------3-3-3-3/5-5-5-5---------8-8-8-8\7-7-7-7--------------|
D|-5-5-5-5-3-3-3-3/5-5-5-5-5-5-5-5-8-8-8-8\7-7-7-7--------------|   x2
A|-5-5-5-5-1-1-1-1/3-3-3-3-5-5-5-5-6-6-6-6\5-5-5-5--------------|
E|-3-3-3-3-----------------3-3-3-3------------------------------|

e|--------------------------------------------------------------|
B|--------------------------------------------------------------|
G|---------3-3-3-3/5-5-5-5---------8-8-8-8\7-7-7-7\3-3-3-3/5~---|
D|-5-5-5-5-3-3-3-3/5-5-5-5-5-5-5-5-8-8-8-8\7-7-7-7\3-3-3-3/5~---|
A|-5-5-5-5-1-1-1-1/3-3-3-3-5-5-5-5-6-6-6-6\5-5-5-5\1-1-1-1/3~---|
E|-3-3-3-3-----------------3-3-3-3------------------------------|


VERSE:
e|-----------------------------------------------------------------|
B|-----------------------------------------------------------------|
G|---------------------------------t-t-t-t-t-t-t-t\9-9-9-9-9-9-9-9-|
D|-5-5-5-5/8-8-8-8\5-5-5-5/8-8-8-8-t-t-t-t-t-t-t-t\9-9-9-9-9-9-9-9-|
A|-5-5-5-5/8-8-8-8\5-5-5-5/8-8-8-8-8-8-8-8-8-8-8-8\7-7-7-7-7-7-7-7-|
E|-3-3-3-3/6-6-6-6\3-3-3-3/6-6-6-6---------------------------------|

e|-----------------------------------------------------------------|
B|-----------------------------------------------------------------|
G|---------------------------------5-5-5-5-5-5-5-5/8-8-8-8-8-8-8-8-|
D|-5-5-5-5/8-8-8-8\5-5-5-5/8-8-8-8-5-5-5-5-5-5-5-5/8-8-8-8-8-8-8-8-|
A|-5-5-5-5/8-8-8-8\5-5-5-5/8-8-8-8-3-3-3-3-3-3-3-3/6-6-6-6-6-6-6-6-|
E|-3-3-3-3/6-6-6-6\3-3-3-3/6-6-6-6---------------------------------|


CHORUS:
e|-----------------------------------------------------------------|
B|-----------------------------------------------------------------|
G|---------5~-3~---------8~-7~-------------------------------------|
D|-5-5-5-5-5~-3~-5-5-5-5-8~-7~-------------------------------------|   x4
A|-5-5-5-5-3~-1~-5-5-5-5-6~-5~-------------------------------------|
E|-3-3-3-3-------3-3-3-3-------------------------------------------|


ENDING:
e---------------------------------|
B|--------------------------------|
G|--------------------------------|
D|-5-5----------------------------|
A|-5-5----------------------------|
E|-3-3----------------------------|
Добавлено: 20.11.2013
Другие материалы по этой песне:
  • Аккорды и текст

Страница создана 20.11.2013
http://primanota.ru/cerebral-ballzy/dont-tell-me-what-to-do-chords.htm
Привет, Гость.
Предлагаем пройти революционный курс по гитаре.
Подарок от PrimaNota.Ru, забирай!