PrimaNota.ru - самый крупный в мире бесплатный архив песенных текстов, аккордов, табулатур и нот


Cephalic Carnage - Scientific Remote Viewing - текст песни, таба, бас-таба, видео

Регистрация Запомнить меня
Войти через:  Facebook Google Twitter Vk Yandex Mail.ru

Cephalic Carnage - Scientific Remote Viewing - текст песни, таба, бас-таба, видео

Печатать
Просмотров: 140
    Q=250
   4/4
    Gtr I
||-----------------------------------------------------------||--|
||o---------------------------------------------------------o||--|
||-----------------------------------------------------------||--|
||--4-3---------4-3-------------4-3---------5-4--------------||--|
||o-----4-3-2-1-----4-3-1-2-4-3-----4-3-2-1-----4-3-1-2-4-3-o||--|
||----------2-1---------1-2-4-3---------2-1---------1-2-4-3--||--|
|
|   Gtr II
||-----------------------------------------------------------||--|
||o---------------------------------------------------------o||--|
||-----------------------------------------------------------||--|
||-----------------------------------------------------------||--|
||o---------2-1---------1-2-4-3---------2-1---------1-2-4-3-o||--|
||----------2-1---------1-2-4-3---------2-1---------1-2-4-3--||--|


    Gtrs I, II
||-----------------------------------------------------------||
||o---------------------------------------------------------o||
||-----------------------------------------------------------||
||--4-3---------4-3-------------4-3---------5-4--------------||
||o-----4-3-2-1-----4-3-1-2-4-3-----4-3-2-1-----4-3-1-2-4-3-o||
||----------2-1---------1-2-4-3---------2-1---------1-2-4-3--||


    Gtrs I, II
                        PM--------|             PM----|
||-------------------||---------------------------------|-|
||o-----------------o||---------------------------------|-|
||-------------------||-------------5-7-6-8-5-7---------|-|
||----------5-7-4-6--||---------4-6-------------3-5-2-4-|-|
||o-3-4-3-4-3s5-2s4-o||-3-4-3-5-------------------------|-|
||--3s4-3s4----------||-3s4-----------------------------|-|


    Gtrs I, II
||-----------------------------------------------------------||-|
||o---------------------------------------------------------o||-|
||-----------------------------------------------------------||-|
||--4-3---------4-3-------------4-3---------5-4--------------||-|
||o-----4-3-2-1-----4-3-1-2-4-3-----4-3-2-1-----4-3-1-2-4-3-o||-|
||----------2-1---------1-2-4-3---------2-1---------1-2-4-3--||-|


    Gtrs I, II
                            PM----|             PM----|
||-------------------||---------------------------------|-|
||o-----------------o||---------------------------------|-|
||-------------------||-------------5-7-6-8-5-7---------|-|
||----------5-7-4-6--||---------4-6-------------3-5-2-4-|-|
||o-3-4-3-4-3s5-2s4-o||-3-4-3-5-------------------------|-|
||--3s4-3s4----------||-3s4-----------------------------|-|


    Gtrs I, II
    PM----------------------------|               PM----|
||-------------------||-----------------|-----------------|-|
||o-----------------o||-----------------|-----------------|-|
||-------------------||-------------5-7-|-6-8-5-7---------|-|
||-------------------||---------4-6-----|---------3-5-2-4-|-|
||o---------3-5-2-4-o||-----3-5---------|-----------------|-|
||--3-4-3-4----------||-3-4-------------|-----------------|-|


    Gtrs I, II
                            PM----|             PM----|
||-------------------||---------------------------------|-|
||o-----------------o||---------------------------------|-|
||-------------------||-------------5-7-6-8-5-7---------|-|
||----------5-7-4-6--||---------4-6-------------3-5-2-4-|-|
||o-3-4-3-4-3s5-2s4-o||-3-4-3-5-------------------------|-|
||--3s4-3s4----------||-3s4-----------------------------|-|


    Gtrs I, II
    PM----------------------------|             PM----|
||-------------------||----------------------------------|
||o-----------------o||----------------------------------|
||-------------------||-------------5-7-6-8-5-7----------|
||-------------------||---------4-6-------------3-5-2-4--|
||o---------3-5-2-4-o||-----3-5--------------------------|
||--3-4-3-4----------||-3-4------------------------------|


  Q=260
  Gtrs I, II
|-----------------|
|-----------------|
|-----------------|
|-----------------|
|-3-2-----3-2-----|
|-3-2-----3-2-----|


    Q=175
    Gtrs I, II          Gtrs I, II
                        TPTPTPTPTPTPTP TPTPTPTPTPTPTPTP
                     8x
||-------------------||---------------------------------|
||o-----------------o||---------------------------------|
||-------------------||------------------------------8--|
||-------------------||-------------6--------------6----|
||o-3-3-2-2-3-3-1-1-o||-5-----5---5----5-----5---5------|
||--3-3-2-2-3-3-1-1--||---6-4---7--------6-4---7--------|


  TPTPTPTPTPTPTP TPTPTPTPTPTPTPTPTPTPTPTPTPTPTP TPTPTPTPTPTPTPTP
|---------------------------------------------------------------|
|---------------------------------------------------------------|
|-------------------------------------------------------------8-|
|-------------6--------------6---------------6--------------6---|
|-5-----5---5----5-----5---5-----5-----5---5----5-----5---5-----|
|---6-4---7--------6-4---7-----4---6-4---7--------6-4---7-------|


  TPTPTPTPTPTPTP TPTPTPTPTPTPTPTP
                                                      7x
|--------------------------------||-------------------||------------|
|--------------------------------||o-----------------o||------------|
|--------------------------------||-------------------||------------|
|-------------6--------------6---||-------------------||------------|
|-5-----5---5----5-----5---5-----||o-3-3-2-2-3-3-1-1-o||-3-3-2-3-1--|
|---6-4---7--------6-4---7-----4-||--3-3-2-2-3-3-1-1--||-3-3-2-3-1--|


    Q=250
    Gtr I
||----------------------------------------------------------|
||o---------------------------------------------------------|
||----------------------------------------------------------|
||--4-3---------4-3-------------4-3---------5-4-------------|
||o-----4-3-2-1-----4-3-1-2-4-3-----4-3-2-1-----4-3-1-2-4-3-|
||----------2-1---------1-2-4-3---------2-1---------1-2-4-3-|
|
|   Gtr II
||----------------------------------------------------------|
||o---------------------------------------------------------|
||----------------------------------------------------------|
||----------------------------------------------------------|
||o---------2-1---------1-2-4-3---------2-1---------1-2-4-3-|
||----------2-1---------1-2-4-3---------2-1---------1-2-4-3-|


  Gtr I
|-----------------------------------------------------|
|-----------------------------------------------------|
|-----------------------------------------------------|
|-4-3---------4-3-------------4-3---------5-4---------|
|-----4-3-2-1-----4-3-1-2-4-3-----4-3-2-1-----4-3-----|
|---------2-1---------1-2-4-3---------2-1-----4-3-----|
|
|   Gtr II
|-----------------------------------------------------|
|-----------------------------------------------------|
|-----------------------------------------------------|
|-----------------------------------------------------|
|---------2-1---------1-2-4-3---------2-1-----2-3-----|
|---------2-1---------1-2-4-3---------2-1-----4-3-----|


    Q=245
    Gtrs I, II
||------------------------------------------------------------------|
||o-----------------------------------------------------------------|
||------------------------------------------------------------------|
||--4-3---------4-3-4-3-------------5-4---------5-4-5-4-------------|
||o-----4-3-------------4-3-------------5-4-------------4-3---------|
||----------2-1-------------1-2-4-3---------2-1-------------1-2-4-3-|


|-----------------------------------------------------------------|
|-----------------------------------------------------------------|
|-----------------------------------------------------------------|
|-4-3---------4-3-4-3-------------5-4---------5-4-5-4-------------|
|-----4-3-------------4-3-------------5-4-------------4-3-4-3-----|
|---------2-1-------------1-2-4-3---------2-1-------------4-3-----|


    Gtr I
||-------------------------------------------------------------------||
||o-----------------------------------------------------------------o||
||-------------------------------------------------------------------||
||--4-3---------4-3-4-3-------------5-4---------5-4-5-4--------------||
||o-----4-3-------------4-3-------------5-4-------------4-3---------o||
||----------2-1-------------1-2-4-3---------2-1-------------1-2-4-3--||
|
|   Gtr II
||-------------------------------------------------------------------||
||o-----------------------------------------------------------------o||
||--6-5---------6-5-6-5-------------7-6---------7-6-7-6--------------||
||------6-5-------------6-5-------------7-6-------------6-5----------||
||o---------4-3-------------3-4-6-5---------4-3-------------3-4-6-5-o||
||-------------------------------------------------------------------||


                 Q=175
  Gtr II         Gtrs I, II
                                  7x
|------------||-------------------||------------|
|------------||o-----------------o||------------|
|------------||-------------------||------------|
|------------||-------------------||------------|
|-3-2--------||o-3-3-2-2-3-3-1-1-o||-3-3-2-3-1--|
|-3-2--------||--3-3-2-2-3-3-1-1--||-3-3-2-3-1--|
|
| Gtr I
|                                 7x
|------------||-------------------||------------|
|------------||o-----------------o||------------|
|------------||-------------------||------------|
|------------||-------------------||------------|
|-3-2--------||o-----------------o||------------|
|-3-2-2s3s1--||-------------------||------------|
Добавлено: 14.07.2012
Другие материалы по этой песне:

Страница создана 02.04.2012
http://primanota.ru/cephalic-carnage/scientific-remote-viewing-chords.htm
Привет, Гость.
Предлагаем пройти революционный курс по гитаре.
Подарок от PrimaNota.Ru, забирай!