PrimaNota.ru - самый крупный в мире бесплатный архив песенных текстов, аккордов, табулатур и нот


Cephalic Carnage - Piecemaker - текст песни, бас-таба, видео

Регистрация Запомнить меня
Войти через:  Facebook Google Twitter Vk Yandex Mail.ru

Cephalic Carnage - Piecemaker - текст песни, бас-таба, видео

Печатать
Просмотров: 178
******************************************************************************
Song: 	Piecemaker
Band: 	Cephalic Carnage
Album: 	Anomalies (2005)

Tabbed By :  Arne Bassist
e-mail:      arne[at]mbnet.fi

Feel free to send feedback & comments!

******************************************************************************


(Guitar solo)

Riff 1: 2X
G|---------------------------------------------------------------------------|
D|---------------------------------------------------------------------------|
A|---------2---------------2---2----------2---------------2---5--------------|
E|-2h4-4-4---4-4-2h4-4-4-4---4----2h4-4-4---4-4-2h4-4-4-4---4----------------| 

G|---------------------------------------------------------------------------|
D|---------------------------------------------------------------------------|
A|---------2---------------2---2----------2----------------------------------|
E|-2h4-4-4---4-4-2h4-4-4-4---4----2h4-4-4---4-4-4/10-10-10-9-7---------------| 

Riff 2: 3X
G|---------------------------------------------------------------------------|
D|---------------------------------------------------------------------------|
A|-----------5p4------------5p4-5p4-----------5p4----------------------------|
E|-2/4-4-4-0-----4-2--4-4-4---------2/4-4-4-0-----4-4/10-10-10-9-7-----------| 

Riff 1, 2X
Riff 2, 3X

Fill: 1X
G|---------------------------------------------------------------------------|
D|---------------------------------------------------------------------------|
A|---------------------------------------------------------------------------|
E|-10--10--10-9-7--10--10--10-9-7---10--10--10-9-7---------------------------|

Bass 'solo': 2X
G|---------------------------------------------------------------------------|
D|---------------------------------------------------------------------------|
A|---------------------------------------------------------------------------|
E|-5---7br---5---5---7br--5--4---4br--4---4--4br-4---------------------------| 

Riff 3: 4X
G|---------------------------------------------------------------------------|
D|---------------------------------------------------------------------------|
A|---------------------------------------------------------------------------|
E|-5---7br---5---5---7br--5--4---4br--4---4--4br-2-2-2-----------------------| 

Riff 4: 2X
G|---------------------------------------------------------------------------|
D|---------------------------------------------------------------------------|
A|---------------------------------------------------------------------------|
E|-1--0--1--3---1-3-4-4-4--1--0--1--3---5-5-5-7-5-4--------------------------|
   
G|---------------------------------------------------------------------------|
D|---------------------------------------------------------------------------|
A|---------------------------------------------------------------------------|
E|-1--0--1--3br---1-3-4br---1--0--1--3---5-5-5-7-5-4-------------------------| 

Bass 'solo' 2: 4X
G|---------------------------------------------------------------------------|
D|---------------------------------------------------------------------------|
A|---------------------------------------------------------------------------|
E|-5---7br---5---5---7br--5--4---4br--4---4--4br-2---------------------------| 


Riff 4, 2X
Solo 2, 3X


*****************************************************************************

| /  slide up
| \  slide down
| h  hammer-on
| p  pull-off
| b  bend
| r  release bend
| ~  vibrato
| +  harmonic
| x  Mute note
Добавлено: 12.04.2012
Другие материалы по этой песне:

Страница создана 12.04.2012
http://primanota.ru/cephalic-carnage/piecemaker-chords.htm
Привет, Гость.
Предлагаем пройти революционный курс по гитаре.
Подарок от PrimaNota.Ru, забирай!