PrimaNota.ru - самый крупный в мире бесплатный архив песенных текстов, аккордов, табулатур и нот


Cephalic Carnage - Lucid Interval - текст песни, таба, видео

Регистрация Запомнить меня
Войти через:  Facebook Google Twitter Vk Yandex Mail.ru

Cephalic Carnage - Lucid Interval - текст песни, таба, видео

Печатать
Просмотров: 136
Авторы: Steve Goldberg, Zac Joe, John Merryman, Lenzig Leal

                                 LUCID INTERVAL
                                Cephalic Carnage


Gtr I (B E A D F# B) - 'Steve'
Gtr II (B E A D F# B) - 'Zac'
Gtr III (B E A D F# B) - 'Steve accoustic'
Gtr IV (B E A D F# B) - 'Zac Accoustic'


  Gtr I
|-------------------------------------------------------------------------------------------------------|
|-------------------------------------------------------------------------------------------------------|
|----------------------------12----------------------------------14----------------------------------13-|
|-------16----16----------16----16----------16----16----------16----16----------15----15----------15----|
|----14----14----14----14----------14----14----14----14----14----------14----13----13----13----13-------|
|-12----------------12----------------12----------------12----------------11----------------11----------|
|
| Gtr II
|-------------------------------------------------------------------------------------------------------|
|-------------------------------------------------------------------------------------------------------|
|-------------------------------------------------------------------------------------------------------|
|-------------------------------------------------------------------------15----------------------------|
|-------------------------------------------------------------------------13----------------------------|
|-------------------------------------------------------------------------11----------------------------|


|----------------------------------------------------------------------------------------------------------|
|----------------------------------------------------------------------------------------------------------|
|----------------------------------13----------------------------------12----------------------------------|
|-15----------15----15----------15----15----------16----16----------16----16----------16----16----------16-|
|----13----13----13----13----13----------13----14----14----14----14----------14----14----14----14----14----|
|-------11----------------11----------------12----------------12----------------12----------------12-------|
|
|----------------------------------------------------------------------------------------------------------|
|----------------------------------------------------------------------------------------------------------|
|----------------------------------------------------------------------------------------------------------|
|-------15----------------------------------16----------------------------------16-------------------------|
|-------13----------------------------------14----------------------------------14-------------------------|
|-------11----------------------------------12----------------------------------12-------------------------|


|----------------------------------------------------------------------------------|
|----------------------------------------------------------------------------------|
|-14----------------------------------13----------------------------------13-------|
|----16----------15----15----------15----15----------15----15----------15----15----|
|-------14----13----13----13----13----------13----13----13----13----13----------13-|
|----------11----------------11----------------11----------------11----------------|
|
|----------------------------------------------------------------------------------|
|----------------------------------------------------------------------------------|
|----------------------------------------------------------------------------------|
|----------15----------------------------------15----------------------------------|
|----------13----------------------------------13----------------------------------|
|----------11----------------------------------11----------------------------------|


|-------------------------|
|-------------------------|
|-------------------------|
|-------14------------13--|
|----12----12------11-----|
|-10----------10-9--------|
|
|-------------------------|
|-------------------------|
|-------------------------|
|-------14------------13--|
|----12----12------11-----|
|-10----------10-9--------|


|-------------------------------------------------------------------------------------|
|-------------------------------------------------------------------------------------|
|-------------------------------------------------------------------------------------|
|------------14------------13------------14----------14----14-16----16-18----18-20----|
|-11------12----12------11----11------12----12----12----12-------14-------16----------|
|----9-10----------10-9----------9-10----------10-------------------------------------|
|
|-------------------------------------------------------------------------------------|
|-------------------------------------------------------------------------------------|
|-------------------------------------------------------------------------------------|
|------------14------------13------------14----------14----14-16----16-18----18-20----|
|-11------12----12------11----11------12----12----12----12-------14-------16----------|
|----9-10----------10-9----------9-10----------10-------------------------------------|


  Q=140
 4/4
  Gtr I
|-------------------------------------------------------------------------|
|-------------------------------------------------------------------------|
|-----------------3---------------------------------14-14-----------------|
|---------4-4-----3-------------4-4-----------12-12-------12-12---------4-|
|-----2-2-----2-2-1---------2-2-----2-2-10-10-----------------------2-2---|
|-0-0-------------------0-0-------------------------------------0-0-------|
|
| Gtr II
|-------------------------------------------------------------------------|
|-------------------------------------------------------------------------|
|-----------------3-------------------------------------------------------|
|-----------------3-------------4-4-----------------14-14---------------4-|
|-----------------1---------2-2-----2-2-------12-12-------12-12-----2-2---|
|-----------------------0-0-------------10-10-------------------0-0-------|


|------------------------------------------------------------------------------------|
|------------------------------------------------------------------------------------|
|-------3--------------------------------16-16-------------------17-17---------------|
|-4-----3------------4-4-----------14-14-------14-14-------15-15-------15-15---------|
|---2-2-1--------2-2-----2-2-12-12-------------------13-13-----------------------2-2-|
|------------0-0-------------------------------------------------------------0-0-----|
|
|------------------------------------------------------------------------------------|
|------------------------------------------------------------------------------------|
|-------3----------------------------------------------------------------------------|
|-4-----3------------4-4-----------------14-14-------------------15-15---------------|
|---2-2-1--------2-2-----2-2-------12-12-------12-12-------13-13-------13-13-----2-2-|
|------------0-0-------------10-10-------------------11-11-------------------0-0-----|


|----------------------------------------------------------------------------|
|----------------------------------------------------------------------------|
|---------3--------------------------------------------------------------3---|
|-4-4-----3------------4-4-----------------14-14-------11-11-----4-4-----3---|
|-----2-2-1--------2-2-----2-2-------12-12-------12-12-------2-2-----2-2-1---|
|--------------0-0-------------10-10-----------------------------------------|
|
|----------------------------------------------------------------------------|
|----------------------------------------------------------------------------|
|---------3--------------------------------------------------------------3---|
|-4-4-----3------------4-4-----------------14-14-------11-11-----4-4-----3---|
|-----2-2-1--------2-2-----2-2-------12-12-------12-12-------2-2-----2-2-1---|
|--------------0-0-------------10-10-----------------------------------------|


                                  ~~  PM---------------------------|
|--------------------------------------------------------------------|
|------------------------14------------------------------------------|
|--------------------11------11--10--------------------10-10---------|
|---------4-4-----9-----------------------9-9------8-8-------8-8-----|
|-----2-2-----2-2---------------------7-7------6-6---------------6-6-|
|-0-0----------------------------------------------------------------|
|
|                                 ~~  PM---------------------------|
|--------------------------------------------------------------------|
|------------------------14------------------------------------------|
|--------------------11------11--10--------------------10-10---------|
|---------4-4-----9-----------------------9-9------8-8-------8-8-----|
|-----2-2-----2-2---------------------7-7------6-6---------------6-6-|
|-0-0----------------------------------------------------------------|


|-------------------------|
|-------------------------|
|-3-----------------------|
|-3------------4-4--------|
|-1--------2-2-----2-2----|
|------0-0----------------|
|
|-------------------------|
|-------------------------|
|-3-----------------------|
|-3------------4-4--------|
|-1--------2-2-----2-2----|
|------0-0----------------|


  Q=160
 4/4
  Gtr I
                         PM----------------|                         PM----------------|
|-----------------------------------------------------------------------------------------------|
|-----------------------------------------------------------------------------------------------|
|-----------------------10-10-9-9-10-10-----------------------------10-10-9-9-10-10-------------|
|-----------------------------------------------------------------------------------------------|
|---------------------------------------12-12---------------------------------------12-12-------|
|-----------------------------------------------------------------------------------------------|
|
| Gtr II
|  PM-----------------|                        PM-----------------|                        PM|
|-----------------------------------------------------------------------------------------------|
|-----------------------------------------------------------------------------------------------|
|-------------------7-7-----------------------------------------7-7-----------------------------|
|-------11-11-10-10---------------------------------11-11-10-10---------------------------------|
|-10-10---------------------------------------10-10---------------------------------------10-10-|
|-----------------------------------------------------------------------------------------------|


                   PM--------------------------|                     PM----------------|
|-------------------------------------------------------------------------------------------|
|-------------------------------------------------------------------------------------------|
|-----------------10-10-9-9-10-10-----------------------------------10-10-------------------|
|-------------------------------------------10-10-----------------------------------10-10---|
|---------------------------------12-12-9-9-------------------------------12-12-9-9---------|
|-------------------------------------------------------------------------------------------|
|
|  PM-----------|                                  PM-------------|                       PM
|-------------------------------------------------------------------------------------------|
|-------------------------------------------------------------------------------------------|
|-------------7-7---------------------------------11-11-------------------------------------|
|-11-11-10-10-------------------------------------------8-8-9-9---------------------------8-|
|---------------------------------------------------------------6-6-------------------------|
|-------------------------------------------------------------------------------------------|


                   PM----------------|                         PM------------------|
|-------------------------------------------------------------------------------------|
|-------------------------------------------------------------------------------------|
|-----------------10-10---------------------------------------------------------------|
|---------------------------------10-10-----------------------------10-10--9--9-11-11-|
|-----------------------12-12-9-9------------------------------9--9-------------------|
|-------------------------------------------------------------------------------------|
|
| PM-----------|                         PM-------------|      PM------------------|
|-------------------------------------------------------------------------------------|
|-------------------------------------------------------------------------------------|
|-----------11-11-----------------------11-11------------------------------------7--7-|
|-8-9-9---------------------------------------8-8-9-9---------------11-11-10-10-------|
|-------6-6-------------------------------------------6-6-----10-10-------------------|
|-------------------------------------------------------------------------------------|


   PM|                   PM-------------------------------------------------------------------------|
|-----------------------------------------------------------------------------------------------------|
|-----------------------------------------------------------------------------------------------------|
|-10-10-9-9-10-10-------------------------------10-10-9-9-10-10-------------------------------10-10-9-|
|-----------------------------10-10--9--9-11-11-----------------------------10-10--9--9-11-11---------|
|-----------------12-12--9--9-----------------------------------12-12--9--9---------------------------|
|-----------------------------------------------------------------------------------------------------|
|
|  PM-----------------------------------------------------------------------------------------------|
|-----------------------------------------------------------------------------------------------------|
|-----------------------------------------------------------------------------------------------------|
|-11-11------------------------------------7--7-11-11------------------------------------7--7-11-11---|
|-------8-8--9--9-------------11-11-10-10-------------8-8--9--9-------------11-11-10-10-------------8-|
|------------------6--6-10-10------------------------------------6--6-10-10---------------------------|
|-----------------------------------------------------------------------------------------------------|


  PM-----------------------------------------------------------------------------------------------|
|-----------------------------------------------------------------------------------------------------|
|-------------------------------------------------12-12-13-13-----------------------------------------|
|-9-10-10-------------------------------10-10-9-9-------------------------------------10-10-9-9-10-10-|
|---------------------10-10--9--9-11-11-----------------------------10-10--9--9-11-11-----------------|
|---------12-12--9--9------------------------------------------9--9-----------------------------------|
|-----------------------------------------------------------------------------------------------------|
|
| PM-----------------------------------------------------------------------------------------------|
|-----------------------------------------------------------------------------------------------------|
|-----------------------------------------------------------------------------------------------------|
|----------------------------------7--7-11-11------------------------------------7--7-11-11-----------|
|-8--9--9-------------11-11-10-10-------------8-8--9--9-------------11-11-10-10-------------8-8--9--9-|
|----------6--6-10-10------------------------------------6--6-10-10-----------------------------------|
|-----------------------------------------------------------------------------------------------------|


   PM-------------------------------------------------------------------------------------|
|-------------------------------------------------------------------------------------------|
|-----------------------------------------------------------------------------10-10-11-11---|
|-------------------------------10-10-9-9-10-10-----------------------8-8-7-7---------------|
|-------------10-10--9--9-11-11---------------------------8-8-7-7-9-9-----------------------|
|-12-12--9--9-----------------------------------12-12-7-7---------------------------------5-|
|-------------------------------------------------------------------------------------------|
|
|  PM-------------------------------------------------------------------------------------|
|-------------------------------------------------------------------------------------------|
|-------------------------------------------------------------------------------------------|
|--------------------------7--7-11-11-----------------------------5-5-9-9-------------------|
|-------------11-11-10-10-------------8-8--9--9-----------9-9-8-8---------6-6--7--7---------|
|--6--6-10-10------------------------------------6--6-8-8----------------------------4--4-6-|
|-------------------------------------------------------------------------------------------|


  PM--------------------------|
|-------------------------------|
|-----------------------8-8-9-9-|
|---------------6-6-5-5---------|
|---6-6-5-5-7-7-----------------|
|-5-----------------------------|
|-------------------------------|
|
| PM--------------------------|
|-------------------------------|
|-------------------------------|
|-----------3-3-7-7-------------|
|---7-7-6-6---------4-4-5-5-----|
|-6-------------------------2-2-|
|-------------------------------|


  Q=155
  Gtr III
|--------------------------------------------------------------|
|--------------------------------------------------------------|
|----------------------------------------------------10-10-10--|
|-------------10-10-10-10--9--9--9--9-11-11-11-11-11-----------|
|--9--9--9--9--------------------------------------------------|
|--------------------------------------------------------------|
|
| Gtr IV
|--------------------------------------------------------------|
|--------------------------------------------------------------|
|--------------------------------------7--7--7--7--7-11-11-11--|
|-------------11-11-11-11-10-10-10-10--------------------------|
|-10-10-10-10--------------------------------------------------|
|--------------------------------------------------------------|


|----------------------------------------------------------------------------------------------------|
|----------------------------------------------------------------------------------------------------|
|-10-9-9-9-9-10-10-10-10-------------------------------------------------------------10-10-10-10-9-9-|
|------------------------------------------------10-10-10-10--9--9--9--9-11-11-11-11-----------------|
|------------------------12-12-12-12--9--9--9--9-----------------------------------------------------|
|----------------------------------------------------------------------------------------------------|
|
|----------------------------------------------------------------------------------------------------|
|----------------------------------------------------------------------------------------------------|
|-11----------------------------------------------------------------------7--7--7--7-11-11-11-11-----|
|----8-8-8-8--9--9--9--9-------------------------11-11-11-11-10-10-10-10-------------------------8-8-|
|-------------------------6--6--6--6-10-10-10-10-----------------------------------------------------|
|----------------------------------------------------------------------------------------------------|


|-----------------------------------------------------|
|-----------------------------------------------------|
|-9-9-10-10-10-10-------------------------------------|
|-----------------------------------------10-10-10-10-|
|-----------------12-12-12-12--9--9--9--9-------------|
|-----------------------------------------------------|
|
|-----------------------------------------------------|
|-----------------------------------------------------|
|-----------------------------------------------------|
|-8-8--9--9--9--9-------------------------11-11-11-11-|
|------------------6--6--6--6-10-10-10-10-------------|
|-----------------------------------------------------|


  Gtr I
|------------------------------------|
|------------------------------------|
|-------------------10-10------------|
|-----9-9-------8-8-------8-8--------|
|-7-7-------6-6---------------6-6-7--|
|------------------------------------|
|
| Gtr II
|------------------------------------|
|------------------------------------|
|-------------------10-10------------|
|-----9-9-------8-8-------8-8--------|
|-7-7-------6-6---------------6-6-7--|
|------------------------------------|


|---------------------------------------------------------------------------|
|---------------------------------------------------------------------------|
|-------11-11-------10-10-----------------11-11-------10-10-----------------|
|---9-9---------8-8-------8-8---------9-9-------------------8-8---------9-9-|
|-7---------------------------6-6-7-7-----------6-6-------------6-6-7-7-----|
|---------------------------------------------------------------------------|
|
|---------------------------------------------------------------------------|
|---------------------------------------------------------------------------|
|-------11-11-------10-10-----------------11-11-------10-10-----------------|
|---9-9---------8-8-------8-8---------9-9-------------------8-8---------9-9-|
|-7---------------------------6-6-7-7-----------6-6-------------6-6-7-7-----|
|---------------------------------------------------------------------------|


|---------------------------------------------------------|------------------|
|---------------------------------------------------------|------------------|
|-11-11---------------------------11-11---------10-10-----|---------11-11----|
|-----------8-8---8-8---------9-9-----------8-8-----------|-----9-9----------|
|-------6-6-----------6-6-7-7-----------6-6---------------|-7-7-----------6--|
|---------------------------------------------------------|------------------|
|
|---------------------------------------------------------|------------------|
|---------------------------------------------------------|------------------|
|-11-11---------------------------11-11---------10-10-----|---------11-11----|
|-----------8-8---8-8---------9-9-----------8-8-----------|-----9-9-------6--|
|-------6-6-----------6-6-7-7-----------6-6---------------|-7-7--------------|
|---------------------------------------------------------|------------------|


|---------------------------------------------------------------------------|
|---------------------------------------------------------------------------|
|-------10-10-----------------9-9---------8-8-----9-9---------11-11---------|
|---8-8-------8-8---------7-7---------6-6-----7-7---------9-9-----------8-8-|
|-6---------------6-6-5-5---------4-4-----------------7-7-----------6-6-----|
|---------------------------------------------------------------------------|
|
|---------------------------------------------------------------------------|
|---------------------------------------------------------------------------|
|-------10-10-----------------9-9---------8-8-----9-9---------11-11---------|
|---8-8-------8-8---------7-7---------6-6-----------------9-9-----------8-8-|
|-6---------------6-6-5-5---------4-4---------5-5-----7-7-----------6-6-----|
|---------------------------------------------------------------------------|


|---------------------------------------------------------|
|---------------------------------------------------------|
|-10-10-----------------9-9---------8-8-----9-9-----------|
|-------8-8---------7-7---------6-6-----7-7---------------|
|-----------6-6-5-5---------4-4---------------------------|
|---------------------------------------------------------|
|
|---------------------------------------------------------|
|---------------------------------------------------------|
|-10-10-----------------9-9---------8-8-----9-9-----------|
|-------8-8---------7-7---------6-6-----------------------|
|-----------6-6-5-5---------4-4---------5-5---------------|
|---------------------------------------------------------|


  Q=160
 4/4
  Gtr I
|-----------------------------------------------------------------------|
|-----------------------------------------------------------------------|
|-----------------------------------------------------------------------|
|---------9-9---------9-9-----10-10---------9-9---------9-9-----8-8-----|
|-----7-7---------7-7-----8-8-----------7-7---------7-7-----6-6---------|
|-5-5---------5-5-------------------5-5---------5-5-----------------5-5-|
|
| Gtr II
|-----------------------------------------------------------------------|
|-----------------------------------------------------------------------|
|-----------------------------------------------------------------------|
|---------9-9---------9-9-----10-10---------9-9---------9-9-----8-8-----|
|-----7-7---------7-7-----8-8-----------7-7---------7-7-----6-6---------|
|-5-5---------5-5-------------------5-5---------5-5-----------------5-5-|


|--------------------------------------------------------------------------|
|-----------------------------------------------------------------------10-|
|-------------------------------------------------------------------7-7----|
|-----9-9---------9-9-----10-10---------9-9---------9-9-----8-8-5-5--------|
|-7-7---------7-7-----8-8-----------7-7---------7-7-----6-6----------------|
|---------5-5-------------------5-5---------5-5----------------------------|
|
|--------------------------------------------------------------------------|
|--------------------------------------------------------------------------|
|-----------------------------------------------------------------------11-|
|-----9-9---------9-9-----10-10---------9-9---------9-9-----8-8-----9-9----|
|-7-7---------7-7-----8-8-----------7-7---------7-7-----6-6-----7-7--------|
|---------5-5-------------------5-5---------5-5----------------------------|


|--------------------------------------------------------------------------------------|
|-10---------10-10-------11-11---------10-10---------10-10------9--9---------10-10-----|
|--------7-7--------8--8-----------7-7-----------7-7-------6-6-----------7-7-----------|
|----5-5-----------------------5-5-----------5-5---------------------5-5-----------5-5-|
|--------------------------------------------------------------------------------------|
|--------------------------------------------------------------------------------------|
|
|--------------------------------------------------------------------------------------|
|--------------------------------------------------------------------------------------|
|-11---------11-11-------12-12---------11-11---------11-11-----10-10---------11-11-----|
|--------9-9-------10-10-----------9-9-----------9-9-------8-8-----------9-9-----------|
|----7-7-----------------------7-7-----------7-7---------------------7-7-----------7-7-|
|--------------------------------------------------------------------------------------|


|--------------------------------------------------------------------------------------|
|-----10-10-------11-11---------10-10---------10-10------9--9-----10--9-------------10-|
|-7-7--------8--8-----------7-7-----------7-7-------6-6---------7-------7-----5---7----|
|-----------------------5-5-----------5-5---------------------5-----------5-3---5------|
|--------------------------------------------------------------------------------------|
|--------------------------------------------------------------------------------------|
|
|--------------------------------------------------------------------------------------|
|--------------------------------------------------------------------------------------|
|-----11-11-------12-12---------11-11---------11-11-----10-10-----11-10-------------11-|
|-9-9-------10-10-----------9-9-----------9-9-------8-8---------9-------9-----7---9----|
|-----------------------7-7-----------7-7---------------------7-----------7-5---7------|
|--------------------------------------------------------------------------------------|


|----------------------------------------------------------------------------|
|--9-------------10--9-------------10--9-------------------------------------|
|----7-----5---7-------7-----5---7-------7-----5-----------------------------|
|------5-3---5-----------5-3---5-----------5-3-----------9-9---------9-9-----|
|----------------------------------------------------7-7---------7-7-----8-8-|
|------------------------------------------------5-5---------5-5-------------|
|
|----------------------------------------------------------------------------|
|----------------------------------------------------------------------------|
|-10-------------11-10-------------11-10-------------------------------------|
|----9-----7---9-------9-----7---9-------9-----7---------9-9---------9-9-----|
|------7-5---7-----------7-5---7-----------7-5-------7-7---------7-7-----8-8-|
|------------------------------------------------5-5---------5-5-------------|


|---------------------------------------------------------------------------|
|---------------------------------------------------------------------------|
|---------------------------------------------------------------------------|
|-10-10---------9-9---------9-9-----8-8---------9-9---------9-9-----10-10---|
|-----------7-7---------7-7-----6-6---------7-7---------7-7-----8-8---------|
|-------5-5---------5-5-----------------5-5---------5-5-------------------5-|
|
|---------------------------------------------------------------------------|
|---------------------------------------------------------------------------|
|---------------------------------------------------------------------------|
|-10-10---------9-9---------9-9-----8-8---------9-9---------9-9-----10-10---|
|-----------7-7---------7-7-----6-6---------7-7---------7-7-----8-8---------|
|-------5-5---------5-5-----------------5-5---------5-5-------------------5-|


|----------------------------------|
|----------------------------------|
|----------------------------------|
|-------9-9---------9-9-----8-8----|
|---7-7---------7-7-----6-6--------|
|-5---------5-5--------------------|
|
|----------------------------------|
|----------------------------------|
|----------------------------------|
|-------9-9---------9-9-----8-8----|
|---7-7---------7-7-----6-6--------|
|-5---------5-5--------------------|


  Q=140
 4/4
  Gtr I
|-----------------------------------------------------------------------------|
|-----------------------------------------------------------------------------|
|-----------------------------------------------9---8-------------------------|
|-------------------------------------------------------7---------------------|
|-----------------9-8-------------------------7---6-----------------------7-6-|
|-7-7-7-7-7-7-7-7-----10-10-10-10-10-10-10-10---------5---5-5-5-5-5-5-5-5-----|
|
| Gtr II
|-----------------------------------------------------------------------------|
|-----------------------------------------------------------------------------|
|-----------------------------------------------9---8-------------------------|
|-------------------------------------------------------7---------------------|
|-----------------9-8-------------------------7---6-----------------------7-6-|
|-7-7-7-7-7-7-7-7-----10-10-10-10-10-10-10-10---------5---5-5-5-5-5-5-5-5-----|


|------------------------------------------------------------------------------|
|------------------------------------------------------------------------------|
|------------------------------------------------------------------------------|
|------------------------------------------------------------------------------|
|-------------------------6-5-------------------------9-8----------------------|
|-8-8-8-8-8-8-8-8-8-8-8-8-----7-7-7-7-7-7-7-7-7-7-7-7-----10-10-10-10-10-10-10-|
|
|------------------------------------------------------------------------------|
|------------------------------------------------------------------------------|
|------------------------------------------------------------------------------|
|------------------------------------------------------------------------------|
|-------------------------6-5-------------------------9-8----------------------|
|-8-8-8-8-8-8-8-8-8-8-8-8-----7-7-7-7-7-7-7-7-7-7-7-7-----10-10-10-10-10-10-10-|


|------------------------------------------------------------------------|
|------------------------------------------------------------------------|
|------9---8-------------------------------------------------------------|
|--------------7---------------------------------------------------------|
|----7---6-----------------------7-6-------------------------6-5---------|
|-10---------5---5-5-5-5-5-5-5-5-----8-8-8-8-8-8-8-8-8-8-8-8-----7-7-7-7-|
|
|------------------------------------------------------------------------|
|------------------------------------------------------------------------|
|------9---8-------------------------------------------------------------|
|--------------7---------------------------------------------------------|
|----7---6-----------------------7-6-------------------------6-5---------|
|-10---------5---5-5-5-5-5-5-5-5-----8-8-8-8-8-8-8-8-8-8-8-8-----7-7-7-7-|


|-------------------------------------------------------------------------------|
|-------------------------------------------------------------------------------|
|-----------------------------------------------9---8---------------------------|
|-------------------------------------------------------7-----------------------|
|-----------------9-8-------------------------7---6-----------------------7-6---|
|-7-7-7-7-7-7-7-7-----10-10-10-10-10-10-10-10---------5---5-5-5-5-5-5-5-5-----8-|
|
|-------------------------------------------------------------------------------|
|-------------------------------------------------------------------------------|
|-----------------------------------------------9---8---------------------------|
|-------------------------------------------------------7-----------------------|
|-----------------9-8-------------------------7---6-----------------------7-6---|
|-7-7-7-7-7-7-7-7-----10-10-10-10-10-10-10-10---------5---5-5-5-5-5-5-5-5-----8-|


|-------------------------------------------------------------------------------|
|-------------------------------------------------------------------------------|
|-------------------------------------------------------------------------------|
|-------------------------------------------------------------------------------|
|-----------------------6-5-------------------------9-8-------------------------|
|-8-8-8-8-8-8-8-8-8-8-8-----7-7-7-7-7-7-7-7-7-7-7-7-----10-10-10-10-10-10-10-10-|
|
|-------------------------------------------------------------------------------|
|-------------------------------------------------------------------------------|
|-------------------------------------------------------------------------------|
|-------------------------------------------------------------------------------|
|-----------------------6-5-------------------------9-8-------------------------|
|-8-8-8-8-8-8-8-8-8-8-8-----7-7-7-7-7-7-7-7-7-7-7-7-----10-10-10-10-10-10-10-10-|


|---------------------------------------------------------------------|----|
|---------------------------------------------------------------------|----|
|---9---8-------------------------------------------------------------|----|
|-----------7---------------------------------------------------------|----|
|-7---6-----------------------7-6-------------------------6-5---------|----|
|---------5---5-5-5-5-5-5-5-5-----8-8-8-8-8-8-8-8-8-8-8-8-----7-7-7-7-|-4--|
|
|---------------------------------------------------------------------|----|
|---------------------------------------------------------------------|----|
|---9---8-------------------------------------------------------------|----|
|-----------7---------------------------------------------------------|----|
|-7---6-----------------------7-6-------------------------6-5---------|----|
|---------5---5-5-5-5-5-5-5-5-----8-8-8-8-8-8-8-8-8-8-8-8-----7-7-7-7-|-4--|


|-----------------------------------------------------------------------|
|-----------------------------------------------------------------------|
|-----------------------------------------------------------------------|
|-----------------------------------------------------------------------|
|---------------6-6-5-5-------------------------5-5-4-4-----------------|
|-4-4-4-4-4-4-4---------7-7-7-7-3-3-3-3-3-3-3-3---------6-6-6-6-2-2-2-2-|
|
|-----------------------------------------------------------------------|
|-----------------------------------------------------------------------|
|-----------------------------------------------------------------------|
|-----------------------------------------------------------------------|
|-----------5-5-6-6-5-5---------------------4-4-5-5-4-4-----------------|
|-4-4-4-4-4-------------7-7-7-7-3-3-3-3-3-3-------------6-6-6-6-2-2-2-2-|


|-----------------------------------------------------------------------|
|-----------------------------------------------------------------------|
|-----------------------------------------------------------------------|
|-----------------------------------------------------------------------|
|---------4-4-3-3-------------------------3-3-2-2---------4-4-4-4-4-4-4-|
|-2-2-2-2---------5-5-5-5-1-1-1-1-1-1-1-1---------4-4-4-4---------------|
|
|-----------------------------------------------------------------------|
|-----------------------------------------------------------------------|
|-----------------------------------------------------------------------|
|-----------------------------------------------------------------------|
|-----3-3-4-4-3-3---------------------2-2-3-3-2-2-----------------------|
|-2-2-------------5-5-5-5-1-1-1-1-1-1-------------4-4-4-4-4-4-4-4-4-4-4-|


|-----------------------------------------------------------------------|
|-----------------------------------------------------------------------|
|-----------------------------------------------------------------------|
|---6-6-5-5-------------------------5-5-4-4-------------------------4-4-|
|-4---------7-7-7-7-3-3-3-3-3-3-3-3---------6-6-6-6-2-2-2-2-2-2-2-2-----|
|-----------------------------------------------------------------------|
|
|-----------------------------------------------------------------------|
|-----------------------------------------------------------------------|
|-----------------------------------------------------------------------|
|-----------------------------------4-4-4-4-5-5-5-5---------------------|
|---5-5-5-5-6-6-6-6-------------------------------------------------3-3-|
|-4-----------------3-3-3-3-3-3-3-3-----------------2-2-2-2-2-2-2-2-----|


|-----------------------------------------------------------------------|
|-----------------------------------------------------------------------|
|-------------------------------------------------------------5-5-5-5-6-|
|-3-3-------------------------3-3-2-2---------4-4-4-4-4-4-4-4-----------|
|-----5-5-5-5-1-1-1-1-1-1-1-1---------4-4-4-4---------------------------|
|-----------------------------------------------------------------------|
|
|-----------------------------------------------------------------------|
|-----------------------------------------------------------------------|
|-----------------------------------------------------------------------|
|-----------------------------2-2-2-2-3-3-3-3---------------------------|
|-3-3-4-4-4-4---------------------------------------------5-5-6-6-5-5---|
|-------------1-1-1-1-1-1-1-1-----------------4-4-4-4-4-4-------------7-|


|-----------------------------------------------------------------------|
|-----------------------------------------------------------------------|
|-6-6-6-----------------4-4-4-4-5-5-5-5-------------------3-3-3-3-4-4-4-|
|-------3-3-3-3-3-3-3-3-----------------2-2-2-2-2-2-2-2-2---------------|
|-----------------------------------------------------------------------|
|-----------------------------------------------------------------------|
|
|-----------------------------------------------------------------------|
|-----------------------------------------------------------------------|
|-----------------------------------------------------------------------|
|-----------------------------------------------------------------------|
|-------------------4-4-5-5-4-4-----------------------3-3-4-4-3-3-------|
|-7-7-7-3-3-3-3-3-3-------------6-6-6-6-2-2-2-2-2-2-2-------------4-4-4-|


|-----------------------------------------------------------------------|
|-----------------------------------------------------------------------|
|-4-----------------2-2-2-2-3-3-3-3-------------7-7-8-8-7-7-------------|
|---1-1-1-1-1-1-1-1-----------------6-6-6-6-6-6-------------9-9-9-9-5-5-|
|-----------------------------------------------------------------------|
|-----------------------------------------------------------------------|
|
|-----------------------------------------------------------------------|
|-----------------------------------------------------------------------|
|-----------------------------------------------------------------------|
|-----------------------------------------------------------------------|
|---------------2-2-3-3-2-2-------------------------5-5-5-5-6-6-6-6-----|
|-4-1-1-1-1-1-1-------------4-4-4-4-4-4-4-4-4-4-4-4-----------------3-3-|


|-----------------------------------------------------------------------|
|-----------------------------------------------------------------------|
|---------6-6-7-7-6-6---------------------5-5-6-6-5-5-------------------|
|-5-5-5-5-------------8-8-8-8-4-4-4-4-4-4-------------7-7-7-7-3-3-3-3-3-|
|-----------------------------------------------------------------------|
|-----------------------------------------------------------------------|
|
|-----------------------------------------------------------------------|
|-----------------------------------------------------------------------|
|-----------------------------------------------------------------------|
|-------------5-5-5-5-4-4-4-4-------------------------------------------|
|---------------------------------------------3-3-3-3-4-4-4-4-----------|
|-3-3-3-3-3-3-----------------2-2-2-2-2-2-2-2-----------------1-1-1-1-1-|


|--------------------------|
|--------------------------|
|---4-4-5-5-4-4------------|
|-3-------------6-6-6-6----|
|--------------------------|
|--------------------------|
|
|--------------------------|
|--------------------------|
|--------------------------|
|-------3-3-3-3-2-2-2-2----|
|--------------------------|
|-1-1-1--------------------|


  Q=140
 4/4
  Gtr I
|---------------------------------------------------------------------|
|---------------------------------------------------------------------|
|-----------------------------9-9-9-9-9-9-8-8-8-8-8-8-8-8-8-8-8-8-8-8-|
|---------------------------------------------------------------------|
|-7-7-7-7-7-7-7-7-7-7-7-7-7-7-----------------------------------------|
|---------------------------------------------------------------------|
|
|---------------------------------------------------------------------|
|---------------------------------------------------------------------|
|---------------------------------------------------------------------|
|---------------------------------------------------------------------|
|---------------------------------------------------------------------|
|---------------------------------------------------------------------|


|------------------------------------------------------------------------------------------------------------|
|------------------------------------------------------------------------------------------------------------|
|-8-8-8-8-8-8-------------------------------------------------------9-9-9-9-9-9-8--8---8---8---8---8---8--8--|
|------------------------------------------------------------------------------------------------------------|
|-------------7--7---7---7---7---7---7---7---7---7---7---7---7---7-------------------------------------------|
|------------------------------------------------------------------------------------------------------------|
|
| Gtr II
|------------------------------------------------------------------------------------------------------------|
|------------------------------------------------------------------------------------------------------------|
|------------------------------------------------------------------------------------------------------------|
|-------------4-(4)-(4)-(4)-(4)-(4)-(4)-(4)-(4)-(4)-(4)-(4)-(4)-(4)-7-----------3-(3)-(3)-(3)-(3)-(3)-(3)----|
|------------------------------------------------------------------------------------------------------------|
|-------------2-(2)-(2)-(2)-(2)-(2)-(2)-(2)-(2)-(2)-(2)-(2)-(2)-(2)-5-----------1-(1)-(1)-(1)-(1)-(1)-(1)----|


|---------------------------------------------------------------------------------------------------------------------------|
|---------------------------------------------------------------------------------------------------------------------------|
|-8-8-8-8--8---8---8---8---8---8---8---8--------------------------------------------------------9--9---9---9---9---9--8-8-8-|
|---------------------------------------------------------------------------------------------------------------------------|
|-----------------------------------------7--7---7---7---7---7---7---7---7---7---7---7---7---7------------------------------|
|---------------------------------------------------------------------------------------------------------------------------|
|
|---------------------------------------------------------------------------------------------------------------------------|
|---------------------------------------------------------------------------------------------------------------------------|
|-------5-(5)-(5)-(5)-(5)-(5)-(5)-(5)-(5)-----------------------------------------------------------------------------6-6-6-|
|-----------------------------------------4-(4)-(4)-(4)-(4)-(4)-(4)-(4)-(4)-(4)-(4)-(4)-(4)-(4)-7-(7)-(7)-(7)-(7)-(7)-------|
|-------3-(3)-(3)-(3)-(3)-(3)-(3)-(3)-(3)-----------------------------------------------------------------------------------|
|-----------------------------------------2-(2)-(2)-(2)-(2)-(2)-(2)-(2)-(2)-(2)-(2)-(2)-(2)-(2)-5-(5)-(5)-(5)-(5)-(5)-------|


|----------------------------------------------------------------------|
|----------------------------------------------------------------------|
|-8-8-8-8-8-8-7-7-7-7-7-7-7-7-7-7-7-----------------------------9-9-9--|
|----------------------------------------------------------------------|
|-----------------------------------7-7-7-7-7-7-7-7-7-7-7-7-7-7--------|
|----------------------------------------------------------------------|
|
|----------------------------------------------------------------------|
|----------------------------------------------------------------------|
|-6-6-6-6-6-6-5-5-5-5-5-5-5-5-5-5-5-----------------------------6-6-6--|
|----------------------------------------------------------------------|
|-----------------------------------4-4-4-4-4-4-4-4-4-4-4-4-4-4--------|
|----------------------------------------------------------------------|


|----------------------------------------------------------------------|
|----------------------------------------------------------------------|
|-9-9-9-8-8-8-8-8-8-8-8-8-7-7-7-7-7-7-7-7-6-6-6------------------------|
|----------------------------------------------------------------------|
|-----------------------------------------------7-7-7-7-7-7-7-7-7-7-7--|
|----------------------------------------------------------------------|
|
|----------------------------------------------------------------------|
|----------------------------------------------------------------------|
|-6-6-6-5-5-5-5-5-5-5-5-5-4-4-4-4-4-4-4-4-3-3-3------------------------|
|----------------------------------------------------------------------|
|-----------------------------------------------4-4-4-4-4-4-4-4-4-4-4--|
|----------------------------------------------------------------------|


|-------|
|-------|
|-------|
|-------|
|-7-7-7-|
|-------|
|
|-------|
|-------|
|-------|
|-------|
|-4-4-4-|
|-------|


  Q=160
                                                           ~~~~~~~~~~~~~~~~~
|--------------------------------------------------------------------------------------|
|---------------------------------------------------14---------------------------------|
|------------------------------------------------11----11-10-(10)-(10)-(10)------------|
|-------14-------------------14-14-------11-11-9--------------------------------9-9----|
|----12----12----------12-12-------12-12------------------------------------7-7--------|
|-10----------10-10-10-----------------------------------------------------------------|
|
|                                                          ~~~~~~~~~~~~~~~~~
|--------------------------------------------------------------------------------------|
|---------------------------------------------------14---------------------------------|
|------------------------------------------------11----11-10-(10)-(10)-(10)------------|
|-------14-------------------14-14-------11-11-9--------------------------------9-9----|
|----12----12----------12-12-------12-12------------------------------------7-7--------|
|-10----------10-10-10-----------------------------------------------------------------|


  Q=210                                   Q=210
 4/4
  Gtr I
|---------------------------------------|-----------------------------------|--|
|---------------------------------------|-----------------------------------|--|
|-----12---11-----12---11-----12-----11-|-----------------------------------|--|
|---9----9------9----9------9------9----|-6-6-6-6-5-5-5-5-6-6-6-3-3-4-4-1-1-|--|
|-7-----------7-----------7------7------|-8-8-8-8-7-7-7-7-8-8-8-5-5-6-6-3-3-|--|
|---------------------------------------|-----------------------------------|--|
|
| Gtr II
|---------------------------------------|-----------------------------------|--|
|---------------------------------------|-----------------------------------|--|
|-----12---11-----12---11-----12-----11-|-----------------------------------|--|
|---9----9------9----9------9------9----|-6-6-6-6-5-5-5-5-6-6-6-3-3-4-4-1-1-|--|
|-7-----------7-----------7------7------|-8-8-8-8-7-7-7-7-8-8-8-5-5-6-6-3-3-|--|
|---------------------------------------|-----------------------------------|--|


  Q=210
|---------------------------------------------------------------|
|---------------------------------------------------------------|
|-9-(9)-(9)----------8-(8)-(8)----------9-6---------------6-5-3-|
|-----------12-11-11-----------11-10-10-----7-8-5---7-6-4-------|
|-------------------------------------------------7-------------|
|---------------------------------------------------------------|
|
|---------------------------------------------------------------|
|---------------------------------------------------------------|
|-9-(9)-(9)----------8-(8)-(8)----------9-6---------------6-5-3-|
|-----------12-11-11-----------11-10-10-----7-8-5---7-6-4-------|
|-------------------------------------------------7-------------|
|---------------------------------------------------------------|


  Q=160
|-----------------------------------|
|-----------------------------------|
|-------------17-19-------------17--|
|-------16-19-------------16-19-----|
|-15-17-------------15-17-----------|
|-----------------------------------|
|
|-----------------------------------|
|-----------------------------------|
|-------------17-19-------------17--|
|-------16-19-------------16-19-----|
|-15-17-------------15-17-----------|
|-----------------------------------|


                                                     Q
|----------------------------------------------------|
|----------------------------------------------------|
|-19-------------------17-19-------------17-19-------|
|----16-19-------16-19-------------16-19-------16-19-|
|----------15-17-------------15-17-------------------|
|----------------------------------------------------|
|
|----------------------------------------------------|
|----------------------------------------------------|
|-19-------------------------------------------------|
|----16-19-------------17-19-------------17-19-------|
|----------------16-19-------------16-19-------16-19-|
|----------15-17-------------15-17-------------------|


 =210
|-----------------------------------|--|
|-----------------------------------|--|
|-----------------------------------|--|
|-6-6-6-6-5-5-5-5-6-6-6-3-3-4-4-1-1-|--|
|-8-8-8-8-7-7-7-7-8-8-8-5-5-6-6-3-3-|--|
|-----------------------------------|--|
|
|-----------------------------------|--|
|-----------------------------------|--|
|-----------------------------------|--|
|-6-6-6-6-5-5-5-5-6-6-6-3-3-4-4-1-1-|--|
|-8-8-8-8-7-7-7-7-8-8-8-5-5-6-6-3-3-|--|
|-----------------------------------|--|


  Q=210
|---------------------------------------|
|---------------------------------------|
|-----12---11-----12---11-----12-----11-|
|---9----9------9----9------9------9----|
|-7-----------7-----------7------7------|
|---------------------------------------|
|
|---------------------------------------|
|---------------------------------------|
|-----12---11-----12---11-----12-----11-|
|---9----9------9----9------9------9----|
|-7-----------7-----------7------7------|
|---------------------------------------|


|---------------------------------------------------|
|---------------------------------------------------|
|-9-(9)-(9)----------8-(8)-(8)----------9-6---------|
|-----------12-11-11-----------11-10-10-----7-8-5---|
|-------------------------------------------------7-|
|---------------------------------------------------|
|
|---------------------------------------------------|
|---------------------------------------------------|
|-9-(9)-(9)----------8-(8)-(8)----------9-6---------|
|-----------12-11-11-----------11-10-10-----7-8-5---|
|-------------------------------------------------7-|
|---------------------------------------------------|


              Q
|-------------|
|-------------|
|-------6-5-3-|
|-7-6-4-------|
|-------------|
|-------------|
|
|-------------|
|-------------|
|-------6-5-3-|
|-7-6-4-------|
|-------------|
|-------------|


 =160
|-------------------------------------------------------------------------------------|
|-------------------------------------------------------------------------------------|
|--------------5--7--------------5--7-------------------17-19-------------17-19-------|
|--------4--7--------------4--7--------4--7-------16-19-------------16-19-------16-19-|
|--3--5--------------3--5-------------------15-17-------------15-17-------------------|
|-------------------------------------------------------------------------------------|
|
|-------------------------------------------------------------------------------------|
|-------------------------------------------------------------------------------------|
|-------------17-19-------------17-19-------------------------------------------------|
|-------16-19-------------16-19-------16-19-------------17-19-------------17-19-------|
|-15-17-------------15-17-------------------------16-19-------------16-19-------16-19-|
|-------------------------------------------15-17-------------15-17-------------------|


  Q=210                                                         Q
|---------------------------------------------------------------|
|---------------------------------------------------------------|
|-9-(9)-(9)----------8-(8)-(8)----------9-6---------------6-5-3-|
|-----------12-11-11-----------11-10-10-----7-8-5---7-6-4-------|
|-------------------------------------------------7-------------|
|---------------------------------------------------------------|
|
|---------------------------------------------------------------|
|---------------------------------------------------------------|
|-9-(9)-(9)----------8-(8)-(8)----------9-6---------------6-5-3-|
|-----------12-11-11-----------11-10-10-----7-8-5---7-6-4-------|
|-------------------------------------------------7-------------|
|---------------------------------------------------------------|


 =210
|-------------------------|
|-------------------------|
|-----12---11-----12---11-|
|---9----9------9----9----|
|-7-----------7-----------|
|-------------------------|
|
|-------------------------|
|-------------------------|
|-----12---11-----12---11-|
|---9----9------9----9----|
|-7-----------7-----------|
|-------------------------|


                Q=210                               Q
|---------------|-----------------------------------|
|---------------|-----------------------------------|
|-----12-----11-|-----------------------------------|
|---9------9----|-6-6-6-6-5-5-5-5-6-6-6-3-3-4-4-1-1-|
|-7------7------|-8-8-8-8-7-7-7-7-8-8-8-5-5-6-6-3-3-|
|---------------|-----------------------------------|
|
|---------------|-----------------------------------|
|---------------|-----------------------------------|
|-----12-----11-|-----------------------------------|
|---9------9----|-6-6-6-6-5-5-5-5-6-6-6-3-3-4-4-1-1-|
|-7------7------|-8-8-8-8-7-7-7-7-8-8-8-5-5-6-6-3-3-|
|---------------|-----------------------------------|


 =160
|-------------------------------|
|-------------------------------|
|-------------17-19-------------|
|-------16-19-------------16-19-|
|-15-17-------------15-17-------|
|-------------------------------|
|
|-------------------------------|
|-------------------------------|
|-------------17-19-------------|
|-------16-19-------------16-19-|
|-15-17-------------15-17-------|
|-------------------------------|


                                                        Q
|-------------------------------------------------------|
|-------------------------------------------------------|
|-17-19-------------------17-19-------------17-19-------|
|-------16-19-------16-19-------------16-19-------16-19-|
|-------------15-17-------------15-17-------------------|
|-------------------------------------------------------|
|
|-------------------------------------------------------|
|-------------------------------------------------------|
|-17-19-------------------------------------------------|
|-------16-19-------------17-19-------------17-19-------|
|-------------------16-19-------------16-19-------16-19-|
|-------------15-17-------------15-17-------------------|


 =140
|------------------------------------|
|------------------------------------|
|-----------------------------9-9-9--|
|------------------------------------|
|-7-7-7-7-7-7-7-7-7-7-7-7-7-7--------|
|------------------------------------|
|
|------------------------------------|
|------------------------------------|
|-----------------------------6-6-6--|
|------------------------------------|
|-4-4-4-4-4-4-4-4-4-4-4-4-4-4--------|
|------------------------------------|


                Q
|---------------|
|---------------|
|-9-9-9-8-8-8-8-|
|---------------|
|---------------|
|---------------|
|
|---------------|
|---------------|
|-6-6-6-5-5-5-5-|
|---------------|
|---------------|
|---------------|


 =160
|-------------------------------------------------------------------------------------|-|
|-------------------------------------------------------------------------------------|-|
|--------------5--7--------------5--7-------------------17-19-------------17-19-------|-|
|--------4--7--------------4--7--------4--7-------16-19-------------16-19-------16-19-|-|
|--3--5--------------3--5-------------------15-17-------------15-17-------------------|-|
|-------------------------------------------------------------------------------------|-|
|
|-------------------------------------------------------------------------------------|-|
|-------------------------------------------------------------------------------------|-|
|-------------17-19-------------17-19-------------------------------------------------|-|
|-------16-19-------------16-19-------16-19-------------17-19-------------17-19-------|-|
|-15-17-------------15-17-------------------------16-19-------------16-19-------16-19-|-|
|-------------------------------------------15-17-------------15-19-------------------|-|


  Q=210
|-----------------------------------------------------------------------------------|
|-----------------------------------------------------------------------------------|
|-----12---11-----12---11-----12-----11---------------------------------------------|
|---9----9------9----9------9------9---------13----13------13----12------13------13-|
|-7-----------7-----------7------7--------10----10------10----10------10------10----|
|---------------------------------------8-------------8-------------8-------8-------|
|
|-----------------------------------------------------------------------------------|
|-----------------------------------------------------------------------------------|
|-----12---11-----12---11-----12-----11---------------------------------------------|
|---9----9------9----9------9------9---------13----13------13----12------13------13-|
|-7-----------7-----------7------7--------10----10------10----10------10------10----|
|---------------------------------------8-------------8-------------8-------8-------|


|---|
|---|
|---|
|---|
|---|
|---|
|
|---|
|---|
|---|
|---|
|---|
|---|


  Q=210
|-----------------------------------|
|-----------------------------------|
|-----------------------------------|
|-6-6-6-6-5-5-5-5-6-6-6-3-3-4-4-1-1-|
|-8-8-8-8-7-7-7-7-8-8-8-5-5-6-6-3-3-|
|-----------------------------------|
|
|-----------------------------------|
|-----------------------------------|
|-----------------------------------|
|-6-6-6-6-5-5-5-5-6-6-6-3-3-4-4-1-1-|
|-8-8-8-8-7-7-7-7-8-8-8-5-5-6-6-3-3-|
|-----------------------------------|


|----------------------------------------------------|
|----------------------------------------------------|
|-9-(9)-(9)----------8-(8)-(8)----------9-6----------|
|-----------12-11-11-----------11-10-10-----7-8-5----|
|-------------------------------------------------7--|
|----------------------------------------------------|
|
|----------------------------------------------------|
|----------------------------------------------------|
|-9-(9)-(9)----------8-(8)-(8)----------9-6----------|
|-----------12-11-11-----------11-10-10-----7-8-5----|
|-------------------------------------------------7--|
|----------------------------------------------------|


              Q=140
|-------------|-----|
|-------------|-----|
|-------6-5-3-|-----|
|-7-6-4-------|-----|
|-------------|-----|
|-------------|-----|
|
|-------------|-----|
|-------------|-----|
|-------6-5-3-|-----|
|-7-6-4-------|-----|
|-------------|-----|
|-------------|-----|


  Q=140
|----------------------------------------------------------------------|
|----------------------------------------------------------------------|
|-----------------------------9-9-9-9-9-9-8-8-8-8-8-8-8-8-8-8-8-8-8-8--|
|----------------------------------------------------------------------|
|-7-7-7-7-7-7-7-7-7-7-7-7-7-7-----------------------------------
Добавлено: 20.03.2012
Другие материалы по этой песне:

Страница создана 20.03.2012
http://primanota.ru/cephalic-carnage/lucid-interval-chords.htm
Привет, Гость.
Предлагаем пройти революционный курс по гитаре.
Подарок от PrimaNota.Ru, забирай!