PrimaNota.ru - самый крупный в мире бесплатный архив песенных текстов, аккордов, табулатур и нот


Cephalic Carnage - Dying Will Be The Death Of Me - текст песни, таба, видео

Регистрация Запомнить меня
Войти через:  Facebook Google Twitter Vk Yandex Mail.ru

Cephalic Carnage - Dying Will Be The Death Of Me - текст песни, таба, видео

Печатать
Просмотров: 124
Авторы: Jawsh Mullen, Steve Goldberg, Zac Joe, John Merryman, Lenzig Leal

Dying will be the Death of Me by Cephalic Carnage
Q=165

 4/4
  Gtr I
|--------------------------------------------------------------------|
|--------------------------------------------------------------------|
|---9-10-9---9-10-9-7-7-9-9-----9-9-10-9---9-10-9-7-7-9-9-5-5-7-7----|
|-7--------7----------------7-7----------7---------------------------|
|--------------------------------------------------------------------|
|--------------------------------------------------------------------|


|-----------------------------------------------------------------------|
|-----------------------------------------------------------------------|
|-----9-9-10-9---9-10-9-7-9---9-10-9---9-10-9-7-7-9-9-5-5-7-7-3-3-5-5---|
|-7-7----------7------------7--------7----------------------------------|
|-----------------------------------------------------------------------|
|-----------------------------------------------------------------------|


|-------------------------------------------------------------------------------------------|
|-----12-12-13-13-12-12-----12-12-13-13-12-12-10-10-12-12-----12-12-13-13-12-12-----12-12---|
|-9-9-------------------9-9-------------------------------9-9-------------------9-9---------|
|-------------------------------------------------------------------------------------------|
|-------------------------------------------------------------------------------------------|
|-------------------------------------------------------------------------------------------|


|----------------------------------------------------------------------------------------------|
|-13-13-12-12-10-10-12-12-8-8-10-10-----12-12-13-13-12-12-----12-12-13-13-12-12-10-10-12-12----|
|-----------------------------------9-9-------------------9-9----------------------------------|
|----------------------------------------------------------------------------------------------|
|----------------------------------------------------------------------------------------------|
|----------------------------------------------------------------------------------------------|


|--------------------------------------------------------------------------------------|
|-----12-12-13-13-12-12-----12-12-13-13-12-12-10-10-12-12-8-8-10-10-6-6-8-8------------|
|-9-9-------------------9-9-----------------------------------------------------9-9----|
|---------------------------------------------------------------------------7-7--------|
|--------------------------------------------------------------------------------------|
|--------------------------------------------------------------------------------------|


|----------------------------------------------------------------------------|
|----------------------------------------------------------------------------|
|-10-10-9-9-----9-9-10-10-9-9-7-7-9-9-----9-9-10-10-9-9-----9-9-10-10-9-9----|
|-----------7-7-----------------------7-7---------------7-7------------------|
|----------------------------------------------------------------------------|
|----------------------------------------------------------------------------|


|--------------------------------------------------------------------------------------|
|---------------------12-12-13-13-12-12-----12-12-13-13-12-12-10-10-12-12-----12-12----|
|-7-7-9-9-5-5-7-7-9-9-------------------9-9-------------------------------9-9----------|
|--------------------------------------------------------------------------------------|
|--------------------------------------------------------------------------------------|
|--------------------------------------------------------------------------------------|


|------------------------------------------------------------------------------------------|
|-13-13-12-12-----12-12-13-13-12-12-10-10-12-12-8-8-10-10-6-6-8-8-----12-12-13-13-12-12----|
|-------------9-9-------------------------------------------------9-9----------------------|
|------------------------------------------------------------------------------------------|
|------------------------------------------------------------------------------------------|
|------------------------------------------------------------------------------------------|


|----------------------------------------------|
|----------------------------------------------|
|-7-7-9-9-5-5-7-7-3-3-5-5-----9-9-10-10-9-9----|
|-------------------------7-7------------------|
|----------------------------------------------|
|----------------------------------------------|


|-----------|
|-----------|
|-----------|
|-----------|
|-----------|
|-----------|


   4/4
||-----------------------------------------------------------------|
||o----------------------------------------------------------------|
||-----------------------------------------------------------------|
||--------------7--------------------------------------------------|
||o-0-0-0-6-0-0---0-0-8-0-0-7-0-0-6-0-0-7-0-0-7-8-7-0-0-0-6-0-0----|
||-----------------------------------------------------------------|


|-----------------------------------------------------------------|
|-----------------------------------------------------------------|
|--------------------------------------------------8--------------|
|-7-----8-----------------7-8-7--------------7-----------9--------|
|---0-0---0-0-8-0-0-7-0-0-------10-8-7-6-6-6---6-6---6-6---6-6----|
|-----------------------------------------------------------------|


|-----------------------------------------------------------------|
|-----------------------------------------------------------------|
|-------------------------------------8-----9-----8-9-8-----------|
|-8-----7-----8-----8-9-8-------7-----------------------11-9-8----|
|---6-6---6-6---6-6-------6-6-6---6-6---6-6---6-6-----------------|
|-----------------------------------------------------------------|


|--------------------||-------------------------------------|
|-------------------o||-------------------------------------|
|-10-11-10-----------||-12-13-12----------14-15-14----------|
|----------13-11-10--||----------15-13-12----------17-15-14-|
|-------------------o||-------------------------------------|
|--------------------||-------------------------------------|


||-----------------------------|
||o----------------------------|
||-----------------------------|
||-----------------------------|
||o-------------2-----2-3-3----|
||--3-3-3-3-3-3---3-3----------|


|---------------------------------------------------------------------|
|---------------------------------------------------------------------|
|---------------------------------------------------------------------|
|-------------------3---4-----------------------------------------2---|
|-2-----------2-----------------------2-----2-3-3-2-----------2-------|
|---3-3-3-3-3---3-3---3---3-3-3-3-3-3---3-3---------3-3-3-3-3---3-----|


|---------------------------------------------------------------------|
|---------------------------------------------------------------------|
|---------------------------------------------------------------------|
|-3---4-------------4-------------------------------------------------|
|-------------------------5-----4-----3-----2-----3-4-3-------3-------|
|---3---2-2-2-2-2-2---2-2---2-2---2-2---2-2---2-2-------2-2-2---2-2---|


|--------------------------------------||-----------------------|
|-------------------------------------o||-----------------------|
|-------------4-5-4-------6-7-6--------||-----------------------|
|-4-----5-----------7-5-4-------9-7-6--||-----------------------|
|-------------------------------------o||-----------------------|
|---2-2---2-2--------------------------||-2-2-2-2-2-2-2---------|


|----------------------------------------------------------------|
|----------------------------------------------------------------|
|----------------------------------------------------------------|
|-------------------------------------4--------------------------|
|-------------------------------3-----------5-----4-----3--------|
|-2-2-2-2-2-2-3-3-3-6-6-6-2-2-2---2-2---2-2---2-2---2-2---2-2----|


|-----------------------------------------------------------|
|-----------------------------------------------------------|
|-----------------------------------------------------------|
|-----------------------------------------------------------|
|-4-----4-5-4-----------------------------------------------|
|---2-2-------2-2-2-2-2-2-2------2-2-2-2-2-2-3-3-3-6-6-6----|


|----------------------------------------------------------------|
|----------------------------------------------------------------|
|----------------------------------------------------------------|
|-------------4-----5-----------------4-5-4----------------------|
|-------3-----------------5-----4-----------7-5-4----------------|
|-2-2-2---2-2---2-2---2-2---2-2---2-2-------------1-1-1-1-1-1----|


|-----------------------------------------------------------|
|-----------------------------------------------------------|
|-----------------------------------------------------------|
|--------------------------------------------3--------------|
|--------------------------------------2-----------4--------|
|-1------1-1-1-1-1-1-2-2-2-5-5-5-1-1-1---1-1---1-1---1-1----|


|-----------------------------------------------------------|
|-----------------------------------------------------------|
|-----------------------------------------------------------|
|-----------------------------------------------------------|
|-3-----2-----3-----3-4-3-----------------------------------|
|---1-1---1-1---1-1-------0-0-0-0-0-0-0------0-0-0-0-0-0----|


              Q=260
|-------------||--------------------------------------------------------|
|-------------||o-------------------------------------------------------|
|-------------||--------------------------------------------------------|
|-------------||--------------------------------------------------------|
|-------------||o------5---7---8---7---5---8---7------5---7---8---7---5-|
|-1-1-1-4-4-4-||--0--0---0---0---0---0---0---0---0--0---0---0---0---0---|


|--------------------------------------------------------------------|
|--------------------------------------------------------------------|
|--------------------------------------------------------------------|
|--------------------------------------------------------------------|
|---8---7------5---7---8---7---5---8---7------5---7---8---5---7---8--|
|-0---0---5--5---5---5---5---5---5---5---3--3---3---3---3---3---3----|


|------||-------------------------------------------------------------------|
|-----o||-------------------------------------------------------------------|
|------||------7---9---10---9---7---10---9------7---9---10---9---7---10---9-|
|------||-0--0---0---0----0---0---0----0---0--0---0---0----0---0---0----0---|
|---7-o||-------------------------------------------------------------------|
|-3----||-------------------------------------------------------------------|


|---------------------------------------------------------------------|
|---------------------------------------------------------------------|
|------7---9---10---9---7---10---9------7---9---10---9---7---6---9----|
|-5--5---5---5----5---5---5----5--------------------------------------|
|----------------------------------8--8---8---8----8---8---8---7------|
|---------------------------------------------------------------------|


||------------------------------------------------------------------|
||o-----------------------------------------------------------------|
||------------------------------------------------------------------|
||------------------------------------------------------------------|
||o------3---5---6---5---3---6---5------3---5---6---5---3---6---5---|
||--0--0---0---0---0---0---0---0---0--0---0---0---0---0---0---0-----|


|----------------------------------------------------------------||---|
|---------------------------------------------------------------o||---|
|----------------------------------------------------------------||---|
|----------------------------------------------------------------||---|
|------3---5---6---5---3---6-5--------3---5---6---3---5---7---8-o||---|
|-3--3---3---3---3---3---3-----3-5--5---5---5---5---5---5---7----||---|


|----------------------------------------------------------------------|
|----------------------------------------------------------------------|
|------7---9---10---9---7---10---9------7---9---10---9---7---10---9----|
|-0--0---0---0----0---0---0----0---0--0---0---0----0---0---0----0------|
|----------------------------------------------------------------------|
|----------------------------------------------------------------------|


|---------------------------------------------------------------------|
|---------------------------------------------------------------------|
|------7---9---10---9---7---10---9------7---9---10---9---7---6---9----|
|-5--5---5---5----5---5---5----5--------------------------------------|
|----------------------------------8--8---8---8----8---8---8---7------|
|---------------------------------------------------------------------|


|----------------------------------------------------------------------|
|----------------------------------------------------------------------|
|------7---9---10---9---7---10---9------7---9---10---9---7---10---9----|
|-0--0---0---0----0---0---0----0---0--0---0---0----0---0---0----0------|
|----------------------------------------------------------------------|
|----------------------------------------------------------------------|


|---------------------------------------------------------------------|
|---------------------------------------------------------------------|
|------7---9---10---9---7---10---9------7---9---10---9---7---6---9----|
|-5--5---5---5----5---5---5----5--------------------------------------|
|----------------------------------8--8---8---8----8---8---8---7------|
|---------------------------------------------------------------------|


|-----------------|-----------------------------------|
|-----------------|-----------------------------------|
|-----------------|-----------------------------------|
|-----------------|-----------------9----7--------(7)-|
|------3---5---6--|-0--------(0)----7----5--------(5)-|
|-0--0---0---0----|-0--------(0)----------------------|


|-----------------------------------------|
|-----------------------------------------|
|-----------------------------------------|
|-9----5--------(5)----7----3--------5----|
|-7----3--------(3)----5----1--------3----|
|-----------------------------------------|


|---------------------------------------------------|
|---------------------------------------------------|
|---------------------------------------------------|
|----------------7-------7--------(7)---7-------5---|
|-0--------(0)-----5-7---5--------(5)-----5-7---3---|
|-0--------(0)--------------------------------------|


|--------------------------------------------------------|
|--------------------------------------------------------|
|--------------------------------------------------------|
|-5-5-5--5-5-5--5-5-3------3--3-3-1------5--5-5-3--------|
|-3-3-3--3-3-3--3-3---5-3--1--1-1---3-1--3--3-3---5-3----|
|--------------------------------------------------------|


|-----------------------------------------------|
|-----------------------------------------------|
|-----------------------------------------------|
|-----------------9----7--------(7)----9----5---|
|-0--------(0)----7----5--------(5)----7----3---|
|-0--------(0)----------------------------------|


|----------------------------------------------|
|----------------------------------------------|
|----------------------------------------------|
|-(5)----7----3--------5-----------------------|
|-(3)----5----1--------3--------0--------(0)---|
|-------------------------------0--------(0)---|


|----------------------------------------------------------|
|----------------------------------------------------------|
|----------------------------------------------------------|
|-5-----7--------(7)---7-------5---5-5-5--5-5-5--5-5-3-----|
|---7-5-5--------(5)-----5-7---3---3-3-3--3-3-3--3-3---5-3-|
|----------------------------------------------------------|


                             Q=130
|----------------------------|-----------------0---0--------------|
|----------------------------|---------4-------0---0-----------4--|
|----------------------------|---------7-------0-2-0-2---------7--|
|-3------1-------------3-----|-----------------0-2-0-2------------|
|-1--1-1---3-1--3--3-3---5-3-|-0-0-0-0---0-0-----2---2-0-0-0-0----|
|----------------------------|-0-0-0-0---0-0-----------0-0-0-0----|


|-------0---0-----------------------------------0---0-------------|
|-------0---0-----------4---------------4-------0---0-----------4-|
|-------0-2-0-2---------7---------------7-------0-2-0-2---------7-|
|-------0-2-0-2-----1---------------------------0-2-0-2-----1-----|
|-0-0-----2---2-0-0-1-0---0-0---0-0-0-0---0-0-----2---2-0-0-1-0---|
|-0-0-----------0-0---0---0-0---0-0-0-0---0-0-----------0-0---0---|


|-------------------------------------------------------------|
|-------------4---------------4-------------4----------4------|
|-------------7---------------7-------------7----------7------|
|-----------------------1-1-----------------------------------|
|-0-0-0-0-0-0---0--0--0-1-1-0----0--0--0-------0-0-0-0---0-0--|
|-0-0-0-0-0-0---0--0--0-----0----0--0--0-------0-0-0-0---0-0--|


                                  Q=165
|-0---0---------------------------||--------------------------------------|
|-0---0-----------4-------------4-||o-------------------------------------|
|-0-2-0-2---------7-------------7-||--------------------------------------|
|-0-2-0-2-----1-------------------||--------------7-----------------------|
|---2---2-0-0-1-0---0-0-0-0-0-0---||o-0-0-0-6-0-0---0-0-8-0-0-7-0-0-6-0-0-|
|---------0-0---0---0-0-0-0-0-0---||--------------------------------------|


|----------------------------------------------------------------------|
|----------------------------------------------------------------------|
|----------------------------------------------------------------------|
|-------------------------7-----8-----------------7-8-7----------------|
|-7-0-0-7-8-7-0-0-0-6-0-0---0-0---0-0-8-0-0-7-0-0-------10-8-7-6-6-6---|
|----------------------------------------------------------------------|


|---------------------------------------------------------------------|
|---------------------------------------------------------------------|
|-------8-----------------------------------------------8-----9-------|
|-7-----------9-----8-----7-----8-----8-9-8-------7-------------------|
|---6-6---6-6---6-6---6-6---6-6---6-6-------6-6-6---6-6---6-6---6-6---|
|---------------------------------------------------------------------|


|---------------------------------||---------------------------------------|
|--------------------------------o||---------------------------------------|
|-8-9-8--------10-11-10-----------||---------------------------------------|
|-------11-9-8----------13-11-10--||---------------------------------------|
|--------------------------------o||---------------------------------------|
|---------------------------------||-2-2-2-2-2-2-2------2-2-2-2-2-2-3-3-3--|


|---------------------------------------------------------------------|
|---------------------------------------------------------------------|
|---------------------------------------------------------------------|
|-------------------4-------------------------------------------------|
|-------------3-----------5-----4-----3-----4-----4-5-4---------------|
|-6-6-6-2-2-2---2-2---2-2---2-2---2-2---2-2---2-2-------2-2-2-2-2-2---|


|----------------------------------------------------------------|
|----------------------------------------------------------------|
|----------------------------------------------------------------|
|--------------------------------------------4-----5-------------|
|--------------------------------------3-----------------5-------|
|-2------2-2-2-2-2-2-3-3-3-6-6-6-2-2-2---2-2---2-2---2-2---2-2---|


|----------------------------------------------------------------|
|----------------------------------------------------------------|
|----------------------------------------------------------------|
|-------4-5-4----------------------------------------------------|
|-4-----------7-5-4----------------------------------------------|
|---2-2-------------1-1-1-1-1-1-1------1-1-1-1-1-1-2-2-2-5-5-5---|


|-------------------------------------------------------------------|
|-------------------------------------------------------------------|
|-------------------------------------------------------------------|
|-------------3-----------------------------------------------------|
|-------2-----------4-----3-----2-----3-----3-4-3-------------------|
|-1-1-1---1-1---1-1---1-1---1-1---1-1---1-1-------0-0-0-0-0-0-0-----|


     Q=130
|----||------------------0---0-------------------0---0-----------|
|----||o---------4-------0---0-----------4-------0---0-----------|
|----||----------7-------0-2-0-2---------7-------0-2-0-2---------|
|----||------------------0-2-0-2-----------------0-2-0-2-----1---|
|----||o-0-0-0-0---0-0-----2---2-0-0-0-0---0-0-----2---2-----1---|
|----||--0-0-0-0---0-0-----------0-0-0-0---0-0-----------0-0-----|


|-----------------0---0-------------------0---0--------------||----|
|---------4-------0---0-----------4-------0---0-----------4-o||----|
|---------7-------0-2-0-2---------7-------0-2-0-2---------7--||----|
|-----------------0-2-0-2-----------------0-2-0-2-----1------||----|
|-0-0-0-0---0-0-----2---2-0-0-0-0---0-0-----2---2-0-0-1-0---o||----|
|-0-0-0-0---0-0-----------0-0-0-0---0-0-----------0-0---0----||----|


|-------*|----|
|-------*|----|
|-------*|----|
|-------*|----|
|-0-0---*|----|
|-0-0---*|----|
Добавлено: 28.05.2012
Другие материалы по этой песне:

Страница создана 28.05.2012
http://primanota.ru/cephalic-carnage/dying-will-be-the-death-of-me-chords.htm
Привет, Гость.
Предлагаем пройти революционный курс по гитаре.
Подарок от PrimaNota.Ru, забирай!