PrimaNota.ru - самый крупный в мире бесплатный архив песенных текстов, аккордов, табулатур и нот


Cephalic Carnage - Divination Volition - таба, видео

Регистрация Запомнить меня
Войти через:  Facebook Google Twitter Vk Yandex Mail.ru

Cephalic Carnage - Divination Volition - таба, видео

Печатать
Просмотров: 100
----------5/9/4---------5/9--8/3----|
---2h4--2---------2h4-2-------------|
------------------------------------|
------------------------------------|    x3
------------------------------------|
------------------------------------|


----5-------6-------8-------10-------|
2-4-----3-5-----5-7-----7-9----------|
-------------------------------------|
-------------------------------------|
-------------------------------------|
-------------------------------------|

------15----------16---------15-----------------|
12-14-------13-15-----12-14---------------------|
------------------------------------------------|
---------------------------------000000---------|   x2  (repeat all x2)
---------------------------------000000---------|
---------------------------------000000---------|
                                 ******

then

----------5/9/4---------5/9--8/3----|
---2h4--2---------2h4-2-------------|
------------------------------------|
------------------------------------|    x3
------------------------------------|
------------------------------------|


----5-------6-------8-------10-------|
2-4-----3-5-----5-7-----7-9----------|
-------------------------------------|
-------------------------------------|
-------------------------------------|
-------------------------------------|

-------------------------------------|
-------------------------------------|
-------------------------------------|
0-0-0-0-0-0-0-0-0-0-0-0-0-0-0-0------|   x4
0-0-0-0-0-0-0-0-0-0-0-0-0-0-0-0------|
0-0-0-0-0-0-0-0-0-0-0-0-0-0-0-0------|
    * *   * *   * *   *


-----------------------------------------------------------------|
------11------------------------------------11---------12-11-12--|
---------10-9-10-------------------------------10-9-10-----------|
0000-------------------------------------------------------------|  x4
0000-------------------------------------------------------------|
0000--------------12-12---11-11---14-14--12----------------------|
****              *  *    *  *    *  *   *


-----------------------------------------------------------------|
------11-9-8-9------------------------------11-9-8-9-12-11-12----|
-----------------------------------------------------------------|
0000-------------------------------------------------------------|  x2
0000-------------------------------------------------------------|
0000--------------12-12---11-11---14-14--12----------------------|
****              *  *    *  *    *  *   *

-------------------------------------------------------|
-------------------------------------------------------|
-------------------------------------------------------|
-------------------------------------------------------|then again twice as fast
-------------------------------------------------------|
12-12--11-11--14-14--12-12--15-15--14------------------|
*  *   *  *   *  *   *  *   *  *   *


------------------------------------------------------|
------------------------------------------------------|
-------------------harmonic---------------------------|
3-0-5-00--2-3-0-00--3--3----3----x2---8-7-5-----------|
3-0-5-00--2-3-0-00----------3---------------8---------|
3-0-5-00--2-3-0-00----------3-------------------------|
      **        **

----------------------------------------------------------|
-------------------------------------------------12tap13--|
-----------------------------------------11tap13----------|
-5-4-5-4-5-4--3334---4-3-4-3------9tap13------------------|   x2
-4-3-4-3-4-3--3334---3-2-3-2------------------------------|
--------------3334----------------------------------------|
this last part is really hard to explain but pretty easy to play. just tap really
fast. and move a fret up every time you repeat till the end of the riff.


--------------------------------------------------------|
--------------------------------------------------------|
--------------------------------------------------------|
--------------------------------------------------------|then repeat the one
--------------------------------------------------------|above once
14-12-11-0--x3-15-14-12-0---x2-17-15-14-0-19-17-15-0----|
all palm

then
--------6-8-15----------|
-5-7-14-----------------|
------------------------|
------------------------|repeat then twice as fast
------------------------|
------------------------|

--------------------------------------------------------|
--------------------------------------------------------|
--------------------------------------------------------|
-5-4-5-4-5-4--3334---4-3-4-3----------------------------|x2
-4-3-4-3-4-3--3334---3-2-3-2----------------------------|
--------------3334------------2-3-2-3--3-4-3-4----------|

--------------------------------------------------------|
--------------------------------------------------------|
--------------------------------------------------------|
--------------------------------------------------------|then repeat above
--------------------------------------------------------|
--5/---5/---5/---5/-------------------------------------|

--------------12----------------------------------------|
---------7----------------------------------------------|
-----5--------------------------------------------------|
--------------------------------------------------------|harmonics
--------------------------------------------------------|
--------------------------------------------------------|

--------------------------------------------------------|
--------------------------------------------------------|
--------------------------------------------------------|
-5-4-5-4-5-4--3334---4-3-4-3----------------------------|x2
-4-3-4-3-4-3--3334---3-2-3-2----------------------------|
--------------3334------------2-3-2-3--3-4-3-4----------|

---------------------------------------|
----11--------------11------12---------|
-------10-9-10---------10-9------------|
---------------------------------------|
---------------------------------------|
-11-------------10---------------------|


---------------------------------------|
---------------------------------------|
---------------------------------------|
12-0-0-0-13-13-12-13-12----------------|repeat till end
12-0-0-0-13-13-12-13-12----------------|
12-0-0-0-13-13-12-13-12----------------|


tab by:Chris Parker
Добавлено: 24.02.2012
Вам также может быть интересно:
Другие материалы по этой песне:
  • Аккорды и текст

Страница создана 24.02.2012
http://primanota.ru/cephalic-carnage/divination-volition-chords.htm
Привет, Гость.
Предлагаем пройти революционный курс по гитаре.
Подарок от PrimaNota.Ru, забирай!