PrimaNota.ru - самый крупный в мире бесплатный архив песенных текстов, аккордов, табулатур и нот


Centralica - Worthless People - аккорды и текст, видео

Регистрация Запомнить меня
Войти через:  Facebook Google Twitter Vk Yandex Mail.ru

Centralica - Worthless People - аккорды и текст, видео

Печатать
Просмотров: 103
Уроки эстрадного вокала в Санкт-Петербурге
Worthless People
Centralica
#-- File created with Instab - http://www.pconline.com/~smcarey/instab.html 

Author/Artist: centralica
Title: worthless people
Album: live in north judson
Transcribed by: Wes A
Email: wes_8771@hotmail.com

this is another great song by centralica
it is a little slower but it is still awesome
i tabbed everythng except for the solo

------------------------------------------------------------------------------
------------------------------------------------------------------------------
---------------4--------5--------7--------------------------------------------
------5------4---4----5---5----7---7------------------------------------------
----5---5--2--------3--------5------------------------------------------------
--3---------------------------------------------------------------------------
intro   this is played 2 times and then the solo comes in

------------------------------------------------------------------------------
------------------------------------------------------------------------------
---------------4--------5--------7--------------------------------------------
------5------4---4----5---5----7---7------------------------------------------
----5---5--2--------3--------5------------------------------------------------
--3---------------------------------------------------------------------------
verses

------------------------------------------------------------------------------
------------------------------------------------------------------------------
--5-5-5-5---------------------------------------------------------------------
--5-5-5-5-5-5-5-5-4-4-4-4-2-2-2-2---------------------------------------------
--3-3-3-3-5-5-5-5-4-4-4-4-2-2-2-2---------------------------------------------
----------3-3-3-3-2-2-2-2-0-0-0-0---------------------------------------------
chorus

-3-------2-------0-------2----------------------------------------------------
-3-------3-------1-------3----------------------------------------------------
-0-------4-------0-------2----------------------------------------------------
-0-------4-------2-------0----------------------------------------------------
-2-------2-------3-------x----------------------------------------------------
-3-------x-------x-------x----------------------------------------------------
  these chords are played over the verses
     
Добавлено: 01.07.2013
Вам также может быть интересно:
Другие материалы по этой песне:
  • Аккорды и текст

Страница создана 01.07.2013
http://primanota.ru/centralica/worthless-people-chords.htm
Привет, Гость.
Предлагаем пройти революционный курс по гитаре.
Подарок от PrimaNota.Ru, забирай!