PrimaNota.ru - самый крупный в мире бесплатный архив песенных текстов, аккордов, табулатур и нот


Censurados - Amigo - таба, видео

Регистрация Запомнить меня
Войти через:  Facebook Google Twitter Vk Yandex Mail.ru

Censurados - Amigo - таба, видео

Печатать
Просмотров: 103
Уроки эстрадного вокала в Санкт-Петербурге
PARA MAIS TABS PORTUGUESAS DE PUNK:
http://punkportugal.googlepages.com/

Censurados- Amigo
Tuning: Standard (E A D G B e)
Tabbed by: DCobain

> Intro

Part 1 (Guitar1)
e|----------------------------------------------------------------------|
B|----------------------------------------------------------------------|
G|--------5--------------10-----------12--------------------------------|
D|-----5-------------10----------12--------------7---------5---------3--|
A|--3------------8-----------10---------------7---------5---------3-----|
E|----------------------------------------5----------3--------1---------|


e|--------------------------------------------------------------------|
B|--------------------------------------------------------------------|
G|--------5--------------10-----------12------------------------------|
D|-----5-------------10----------12-----------77777------5555------3--|
A|--3------------8-----------10---------------77777------5555------3--|
E|--------------------------------------------55555------3333------1--|



Part 2 (Guitar1)
e|----------------------------------------------------------------------|   
B|-----------------------------------------------------------------------|
G|-----------------------------------------------------------------------|2x
D|------------2-3-5---------------------------------------------7-5-3----|
A|-3-(3)-(3)-------------------2-3-5-----------4-5-7---5-5-5----------3--|
E|-------------------3-(3)-(3)--------5-(5)-(5)--------------------------|



>Verse 

Guitar1: Intro Part 1 2x

Guitar 2:
e|-------------------------------------------------------|
B|-------------------------------------------------------|
G|-5-5-5-5---10-10-10---12-12-12-------------------------|
D|-5-5-5-5---10-10-10---12-12-12--7-7-7---5-5-5---3-3-3--| 2x
A|-3-3-3-3---8--8--8----10-10-10--7-7-7---5-5-5---3-3-3--|
E|--------------------------------5-5-5---3-3-3---1-1-1--|


> Chorus (Refrão)


e|---------------------------------------------------------------------|
B|---------------------------------------------------------------------|
G|-5--5--5--5---10-10----12-12---5--5--5--5---10-10-10-10--12-12-12-12-|
D|-5--5--5--5---10-10----12-12---5--5--5--5---10-10-10-10--12-12-12-12-| 2x
A|-3--3--3--3---8--8-----10-10---3--3--3--3---8--8--8--8---10-10-10-10-|
E|---------------------------------------------------------------------|
  ................................PM..................................

 Intro Part1


Solo




Duvidas e/ou correcções para:

diogo.lourenco@hotmail.com



------------------------------------

Censurados a melhor banda portuguesa
------------------------------------


PARA MAIS TABS PORTUGUESAS DE PUNK:
http://punkportugal.googlepages.com/

Добавлено: 12.05.2012
Другие материалы по этой песне:
  • Аккорды и текст

Страница создана 12.05.2012
http://primanota.ru/censurados/amigo-chords.htm
Привет, Гость.
Предлагаем пройти революционный курс по гитаре.
Подарок от PrimaNota.Ru, забирай!