PrimaNota.ru - самый крупный в мире бесплатный архив песенных текстов, аккордов, табулатур и нот


Cemiyette Pisiyorum - Kirmizi - таба, видео

Регистрация Запомнить меня
Войти через:  Facebook Google Twitter Vk Yandex Mail.ru

Cemiyette Pisiyorum - Kirmizi - таба, видео

Печатать
Просмотров: 100
Cemiyette Pişiyorum sevdğim ve çaldığım bir grup olduğu 
sizlerle tablarını paylaşmak istedim:)
-başlar clean nakarat ve outro distortion:D

e|6-6-5-5-3-3-1-1-1-1-6-6-10-10-5-5-3-3-3h5p3-6-6-5-5-3-3-1-1-1-1-|
B|----------------------------------------------------------------|
G|----------------------------------------------------------------|
D|----------------------------------------------------------------|
A|----------------------------------------------------------------|
E|----------------------------------------------------------------|

e|---------------------------------------------------------------|
B|8-8-8-10-8-8-8-10-8--------------------------------------------|
G|7-7-7-7--7-7-7-7--7--------------------------------------------|
D|---------------------------------------------------------------|
A|---------------------------------------------------------------|
E|---------------------------------------------------------------|

e|--------------------------------10----------10--------------------|
B|------------------------8-8-8-11----11-8--11----11-8--------------|
G|------------------------------------------------------------------|  x4
D|------------------------------------------------------------------|
A|------------------------------------------------------------------|
E|------------------------------------------------------------------|

e|---------------------------------------------------------------------|
B|9-9-9-9-9-9-9-9-9-9-9-9-9-9-9-9--13-13-13-13-13-13-13-13-13-13-13-13-|
G|8-8-8-8-8-8-8-8-8-8-8-8-8-8-8-8--12-12-12-12-12-12-12-12-12-12-12-12-|
D|---------------------------------------------------------------------|
A|---------------------------------------------------------------------|
E|---------------------------------------------------------------------|

e|--------------------------------------------------------------------|
B|13-13-13-13---------------------------------------------------------|
G|12-12-12-12-    x2    ----------------------------------------------|
D|--------------------------------------------------------------------|
A|--------------------------------------------------------------------|
E|--------------------------------------------------------------------|

+kırmızıııı gözyaşı.....                
çek taşı.....
e|--------------------------------------------------------------------|
B|13-13-x-13-13-x--8-8-x-8-8-x----------------------------------------|
G|12-12-x-12-12-x--7-7-x-7-7-x----  x4   -----------------------------|
D|--------------------------------------------------------------------|
A|--------------------------------------------------------------------|
E|--------------------------------------------------------------------|

e|11-11-11-11-10-10--10--------------------8--11----------------------|
B|11-11-11-11-10-10----11-8-7-7-7-7-7--10------------   x2   ---------|
G|--------------------------------------------------------------------|
D|--------------------------------------------------------------------|
A|--------------------------------------------------------------------|
E|--------------------------------------------------------------------|

        nakarat
e|-----------------------------------------------------------------------|
B|-----------------------------------------------------------------------|
G|----------------------------------------------------------12-12-121212-|
D|5-5-555-5-5-555-8-8-888-8-8-888-12-12-121212-12-12-121212-12-12-121212-|
A|5-5-555-5-5-555-8-8-888-8-8-888-12-12-121212-12-12-121212-10-10-101010-|
E|3-3-333-3-3-333-6-6-666-6-6-666-10-10-101010-10-10-101010--------------|

e|----------------------------------------------------------------------|
B|----------------------------------------------------------------------|
G|-12-121212------------------------------------------------------------|
D|-12-121212------------------------------------------------------------|
A|-10-101010------------------------------------------------------------|
E|----------------------------------------------------------------------|

nakaratın devamı bu sefer power tablarda geçişlerde duraksama yok
e|-------------------------------------------------------------------------|
B|-------------------------------------------------------------------------|
G|-------------------------------------------------------------------12-12-|
D|5555555555555555-8888888888888888-12121212121212121212121212121212-12-12-|
A|5555555555555555-8888888888888888-12121212121212121212121212121212-10-10-|
E|3333333333333333-6666666666666666-10101010101010101010101010101010-------|

e|------------------------------------------------------------------------|
B|------------------------------------------------------------------------|
G|-121212-12-121212-------------------------------------------------------|
D|-121212-12-121212-----   x 2   -----------------------------------------|
A|-101010-10-101010-------------------------------------------------------|
E|------------------------------------------------------------------------|

1.nakarat bitiminde tekrar baştan---
2.nakarattan sonra -OUTRO--
                          +     outro   +
e|6-6-5-5-3-3-1-1-1-1-6-6-10-10-5-5-3-3-3h5p3-6-6-5-5-3-3-1-1-1-1-|
B|----------------------------------------------------------------|
G|----------------------------------------------------------------|
D|----------------------------------------------------------------|
A|----------------------------------------------------------------|
E|----------------------------------------------------------------|

e|---------------------------------------------------------------|
B|8-8-8-10-8-8-8-10-8--------------------------------------------|
G|7-7-7-7--7-7-7-7--7--------------------------------------------|
D|---------------------------------------------------------------|
A|---------------------------------------------------------------|
E|---------------------------------------------------------------|

bence tablar doğru ama eksikleri olabilir:)
ayrıca bazı yerlerdeki 2.gitarın tablarını koymadım 
siz çıkarın:D
Добавлено: 13.05.2012
Другие материалы по этой песне:

Страница создана 13.05.2012
http://primanota.ru/cemiyette-pisiyorum/kirmizi-chords.htm
Привет, Гость.
Предлагаем пройти революционный курс по гитаре.
Подарок от PrimaNota.Ru, забирай!