PrimaNota.ru - самый крупный в мире бесплатный архив песенных текстов, аккордов, табулатур и нот


Cemetary - Scarecrow - аккорды и текст, видео

Регистрация Запомнить меня
Войти через:  Facebook Google Twitter Vk Yandex Mail.ru

Cemetary - Scarecrow - аккорды и текст, видео

Печатать
Просмотров: 118
Scarecrow
Cemetary
Album - Black Vanity

www.kainmusic.narod.ru


Acoustic Rhythm:
1---------------------------------
2---------------------------------
3---------------------------------
4------5-----7-----8-----7-----5--
5---5-----5-----5-----5-----5-----
6---------------------------------

Riff1:
1------------------------------------------------
2------------------------------------------------
3------------------------------------------------
4--5-5-5---5-5-5---5-5-5---3-3-3---3-3-3---3-3-3-
5--5-5-5---5-5-5---5-5-5---3-3-3---3-3-3---3-3-3-
6--3-3-3---3-3-3---3-3-3---1-1-1---1-1-1---1-1-1-

Riff2(Palm Muted):
1-------------------------------
2-------------------------------
3-------------------------------
4--5-5-5-5-5-5-5--3-3-3-3-3-3-3-
5--5-5-5-5-5-5-5--3-3-3-3-3-3-3-
6--3-3-3-3-3-3-3--1-1-1-1-1-1-1-

Solo In Chorus :
1------------------------------------------------------
2------------------------------------------------------
3------------------------------------------------------
4---7-8-7-5---7-8-7-5------5-3-2-3---5-3-2-3-----------
5------------------------------------------------------
6------------------------------------------------------


Verse1:
(Acoustic Rhythm with Riff1)
Passion stains the godless taste
The human eye now raped and dazed
Our marks of shame soon worn away
The spider's trapped an a web of clay

Chorus  :
(Riff2 with Solo in Chorus ). 
Naked in the desert of delight
Banish the thoughts into the night
Scarecrow servant of demise
Parting the honey from the flies


Verse2:
What's in the veins is what to keep
Stil the floods of raptures sound a sleep
Visions fade and die at ease
Inferior slaves are ours to please

Chorus : 
Solo(Dont have)

Verse3:
The last of shadows shapes the end
From mountains high it all desscends
One single dagger unleash the doom
Creation falls in my closed room

Chorus :
Добавлено: 25.09.2013
Другие материалы по этой песне:
  • Аккорды и текст

Страница создана 17.05.2012
http://primanota.ru/cemetary/scarecrow-chords.htm
Привет, Гость.
Предлагаем пройти революционный курс по гитаре.
Подарок от PrimaNota.Ru, забирай!