PrimaNota.ru - самый крупный в мире бесплатный архив песенных текстов, аккордов, табулатур и нот


Celtic Frost - Under Apollyons Sun - таба, видео

Регистрация Запомнить меня
Войти через:  Facebook Google Twitter Vk Yandex Mail.ru

Celtic Frost - Under Apollyons Sun - таба, видео

Печатать
Просмотров: 115
-------------------------------------------------------------------------------
                        Under Apollyon's Sun - Celtic Frost
-------------------------------------------------------------------------------
Tabbed by: Tyrany92
Email: tyrantgma92@yahoo.com

Tuning: D standard

Song - Under Apollyon's Sun
Artist - Celtic Frost
Album - Parched With Thirst Am I And Dying

Riff A

e|--------------------------|
B|--------------------------|
G|--------------------------|
D|--------4-----------------|
A|--2-----2-----4--3--------|
E|--0--0-----0--2--1--------|



Riff B

e|------------------------------------------------------------------------------------|
B|------------------------------------------------------------------------------------|
G|------------------------------------------------------------------------------------|
D|-----------------------9-----9--------------------------------9---9-----------------|
A|--2-----2--------9-----7-----7--------3-----2---2-------9-----7---7----5-4-3--------|
E|--0--0--0---0-0--7--0--0--0--0---0-0--1--0--0-0-0--0-0--7--0--0-0-0-0--3-2-1--------|
       .      . .     .     .      . .     .    .    . .     .    .   .



Riff C

e|--------------------------------------------------------------|
B|--------------------------------------------------------------|
G|--------------------------------------------------------------|
D|--------------------------------------------------------------|
A|--4---------------------------5-4-----------------------------|
E|--2--2-2-2-2-2-2-2-2-2-2-2-2--3-2--2-2-2-2-2-2-2--2br--1br----|
       . . . . . . . . . . . .       . . . . . . .


Riff D

e|--------|----------|--------------------------|
B|--------|----------|--------------------------|
G|--------|----------|--------------------------|
D|--------|----------|--------4-----------------|
A|---5----|-----7----|--2-----2-----4--3--------|
E|---3----|-----5----|--0--0-----0--2--1--------|



Riff E

e|----------------------------------------|
B|----------------------------------------|
G|----------------------------------------|
D|----------------------------------------|
A|--2-2-2----2-2-2-2-2---5----2-2-2-------|
E|--0-0-0----0-0-0-0-0---3----0-0-0-------|



Riff E
(Second guitar's little fill)

e|---------------------------------------------------------------------------|
B|---------------------------------------------------------------------------|
G|---------------------------------------------------------------------------|
D|---------------------------------------------------------------------------|
A|--2-2-2----2-2-2-2-2---5---------2---------2---------2----------2----------|
E|--0-0-0----0-0-0-0-0---3---1-1-1-0---1-1-1-0---1-1-1-0----1-1-1-0----------|
                             . . .     . . .     . . .      . . .

Riff F

e|---------------------------------------------------------------------------------|
B|---------------------------------------------------------------------------------|
G|---------------------------------------------------------------------------------|
D|---9--9--9----9--9--9-----7--7--7------------------------------------------------|
A|---7--7--6----7--7--6-----5--5--4--------5---6---------6-------------------------|
E|---0--0--7----0--0--7-----5--5--5--------3-/-4---4--4--4---0--3br--0--2b---------|




---------------LYRICS----------------

The face of Nemesis
Under pandemonium's heat
Parched my yearning whisper
In this world of deceit

To lie, to cry, they die
To drown in their well of sighs
All their pain bears their name
Ignorance dies by its own lies

Tears of indignation
Crying under Apollyon's sun
In faith for love
Underground, a dream apart

Flesh from soil
Disparate, no less the same
Sift my tears
The lasting spring

We were raised to fade
To deluge by carnal claims

To lie, to cry, they die
To drown in their well of sighs

--------------------------------------



************************************

| /   slide up
| \   slide down
| h   hammer-on
| p   pull-off
| ~   vibrato
| +   harmonic
| x   Mute note
| b   Bend
| pb  Pre-bend
| br  Bend release
| pbr Pre-bend release
| brb Bend release bend
| .   palm mute

************************************
Добавлено: 18.03.2012
Другие материалы по этой песне:
  • Аккорды и текст

Страница создана 18.03.2012
http://primanota.ru/celtic-frost/under-apollyons-sun-chords.htm
Привет, Гость.
Предлагаем пройти революционный курс по гитаре.
Подарок от PrimaNota.Ru, забирай!