PrimaNota.ru - самый крупный в мире бесплатный архив песенных текстов, аккордов, табулатур и нот


Celtic Frost - Procreation Of The Wicked - текст песни, бас-таба, видео

Регистрация Запомнить меня
Войти через:  Facebook Google Twitter Vk Yandex Mail.ru

Celtic Frost - Procreation Of The Wicked - текст песни, бас-таба, видео

Печатать
Просмотров: 176
Авторы: Thomas Gabriel Warrior, Martin Eric Ain

5 strings standart tunning

the notes between () are optional, they are not really played but i
think that sound pretty cool. oh! and make a lot of up-neck slides
to fill some parts (it gives the song more low)

INTRO

(heavy distorted guitars)
G|--------------------------------|
D|--------------------------------|
A|--------------------------------|
E|--------------------------------|
B|-0---------0--------0---------0-|

G|-------------------------------------|
D|-------------------------------------|
A|-------------------------------------|
E|-------------------------------------|
B|-6-5--0-0--3-2-2-3---0-----------/12-|

G|----------------------------|
D|----------------------------|
A|----------------------------|
E|----------------------------|
B|-6(full bend)--0-0--2-1-1-2-|

VERSE
G|----------------------------|
D|----------------------------|
A|----------------------------|
E|----------------------------|
B|-0-------4/6--6-6-(7)-7/--0-|
"You were born... dinosaurs had lied"

CHORUS
G|-----------------------------------|
D|-----------------------------------|
A|-----------------------------------|
E|--------------------222-(3)----3-2-|
B|-22222222--333-(4)-----------------|
          "Procreation of the wicked!!"

SOLO
G|----------------------------|
D|----------------------------|
A|----------------------------|
E|----------------------------|
B|-6(full bend)--0-0--2-1-1-2-|

OUTRO
G|---------------------|
D|---------------------|
A|---------------------|
E|---------------------|
B|-0-----222--0--------|

then the solo and chorus riff
Добавлено: 24.03.2012
Другие материалы по этой песне:

Страница создана 24.03.2012
http://primanota.ru/celtic-frost/procreation-of-the-wicked-chords.htm
Привет, Гость.
Предлагаем пройти революционный курс по гитаре.
Подарок от PrimaNota.Ru, забирай!