PrimaNota.ru - самый крупный в мире бесплатный архив песенных текстов, аккордов, табулатур и нот


Celtic Frost - Downtown Hanoi - текст песни, таба, видео

Регистрация Запомнить меня
Войти через:  Facebook Google Twitter Vk Yandex Mail.ru

Celtic Frost - Downtown Hanoi - текст песни, таба, видео

Печатать
Просмотров: 146
Artist - Celtic Frost
Song - Downtown Hanoi
Album - Cold Lake


Tabbed by Guðfinnur Þorvaldsson


* = Artificial Harmonics
/ = Slide
~ = Vibrate

Tuning: Normal Tuning



     PART 1 -  Repeat 2x
E||------------------------------------|-----------------------------------||
B||------------------------------------|-----------------------------------||
G||-----12----------10-----------------|-----12----------10----------------||
D||----------12----------10------------|----------12----------10-----------||
A||-0-0----0----0-0----0----0-0--8-8-8-|-0-0----0----0-0----0----0-0--8--8-||
E||------------------------------6-6-6-|------------------------------6--6-||
  pm...    .    ...    .    ...          ...    .    ...    .    ...




     PART 2 -  Repeat 4x
E||------------------------------------|-----------------------------------||
B||------------------------------------|-----------------------------------||
G||------------------------------------|-----------------------------------||
D||--------------------7-3-2-----------|-------------------8-7---3-2-------||
A||-00000000000000000--5-1-0-----------|-0000000000000000--6-5-0-1-0-------||
E||------------------------------------|-----------------------------------||
  pm.................                         ................      .




     PART 3 -  Repeat 2x
E||----------------------------------------||
B||----------------------------------------||
G||----------------------------------------||
D||----------------------------------------||
A||--5-5-5-5-5-5-5-5--3/5-5-8-5-3----------||
E||--3-3-3-3-3-3-3-3--1/3-3-6-3-1----------||
   pm...............          .




     PART 4 -  Repeat 4x
E||----------------------------------------||
B||----------------------------------------||
G||----------------------------------------||
D||---------------------4-5----------------||
A||--2-2-2-2-2-2-2-2-2--2-3-5--------------||
E||--0-0-0-0-0-0-0-0-0------3--------------||
   pm.................




     PART 5 -  Repeat 2x
E||-------------------------------------|---------------------------------||
B||-------------------------------------|---------------------------------||
G||-------------------------------------|---------------------------------||
D||-------------------------------------|---------------------------------||
A||--5--5-5--5--5---4--4-4-4--4--4------|--8--8-8--8--8---9--9-9-9--9--9--||
E||--3--3-3--3--3---2--2-2-2--2--2------|--6--6-6--6--6---7--7-7-7--7--7--||
   pm   ...     .      .....     .            ...     .      .....     .



     Part 1 - 2x
     Part 2 - 4x
     Part 3 - 2x
     Part 4 - 4x
     Part 5 - 2x



     PART 6 -  Repeat 8x
E||----------------------------------------||
B||----------------------------------------||
G||------10---------6---------6------------||
D||-----------9---------5-------5*~--------||
A||--0-0----0---0-0---0---0-0--------------||
E||----------------------------------------||
   pm...    .   ...   .   ...



     Part 2 - 4x
     Part 3 - 2x
     Part 4 - 2x
     Part 3 - 2x
     Part 4 - 2x
     Part 5 - 2x
     Part 1 - 2x
     Part 2 - 4x (then it starts fading out)
Добавлено: 11.04.2012
Другие материалы по этой песне:
  • Аккорды и текст

Страница создана 11.04.2012
http://primanota.ru/celtic-frost/downtown-hanoi-chords.htm
Привет, Гость.
Предлагаем пройти революционный курс по гитаре.
Подарок от PrimaNota.Ru, забирай!