PrimaNota.ru - самый крупный в мире бесплатный архив песенных текстов, аккордов, табулатур и нот


Celtic Frost - Beyond The North Winds - текст песни, таба, видео

Регистрация Запомнить меня
Войти через:  Facebook Google Twitter Vk Yandex Mail.ru

Celtic Frost - Beyond The North Winds - текст песни, таба, видео

Печатать
Просмотров: 138
(Beyond The) North Winds
The Mega Therion
Celtic Frost

Standard Tune (Slightly Higher)

Guitar 1 (Warrior Lead)
Guitar 2 (Warrior Rhythm)

Intro
Guitar 1&2
|--------------|
|--------------|
|--------------|x4
|-7-7-777-5-6--|
|-5-5-555-3-4--|
|--------------|

Riff A
Guitar 1&2
|-------------------|
|-------------------|
|-------------------|
|-------------------|x4
|-------3--------4--|
|-0-0-0-1--0-0-0-2--|

Verse
Guitar 1&2
|--------------------------------------|
|--------------------------------------|
|--------------------------------------|
|--------------------------------------|
|-6------------------------------------|
|-5-5-5-5-5-5-5-5-5-5-5-5-5-5-5-5-5-5--|

|--------------------------------------|
|--------------------------------------|
|--------------------------------------|
|--------------------------------------|x3
|-8\6----------------------------------|
|-6\5-5-5-5-5-5-5-5-5-5-5-5-5-5-5-5-5--|

|--------------------------------------|
|--------------------------------------|
|--------------------------------------|
|--------------------------------------|x2
|-8\6----------------------------------|
|-6\5-5-5-5-5-5-5-5-5-4-4-4-4-3-3-3-3--|

Riff B
Guitar 1&2
|--------------------|
|--------------------|
|--------------------|
|----------------5---|x4
|-------4--2-2-2-3---|
|-0-0-0-2------------|

Riff C
Guitar 1&2
|------------------------------------|
|------------------------------------|
|------------------------------------|
|-------------3/4--------------3--3--|x2
|-------------1/2--------------1--1--|
|-1-1-1-1-1-1------1-1-1-1-1-1-------|

Repeat Riff A
Repeat Verse
Repeat Riff B
Repeat Riff C

Riff D
Guitar 1&2
|--------------------------|
|--------------------------|
|--------------------------|x4
|-----4-----5-----6-7\6/7--|
|-0-0-2-0-0-3-0-0-4-5\4/5--|
|--------------------------|

First Solo (this is probably not right. but this is how i play it)
Guitar 1
|----------------------------------------------------------------------|
|---------------------------------------------866966866966866966866966-|
|----------------------------------6tr8----6---------------------------|
|-----------------------6tr8----6--------------------------------------|
|------------6tr8----6-------------------------------------------------|
|-6tr8----6------------------------------------------------------------|

|----------------------------------------------------------------------|
|-866966866966866966866966-7b-----------------------108810881088108810-|
|--------------------------------------7-6-----------------------------|
|----------------------------------7-6-----9-10~-----------------------|
|------------------------------7-6-------------------------------------|
|----------------------------------------------------------------------|

|----------------------------------------------------------------------|
|-88108810881088121010121010121010121010121010121010121010121010-12~---|
|----------------------------------------------------------------------|
|----------------------------------------------------------------------|
|----------------------------------------------------------------------|
|----------------------------------------------------------------------|

Solo Rhythm (Riff E)
Guitar 2
|-------------------------|
|-------------------------|
|-------------------------|
|---------------------5-6-|x4
|-1-1-1-1-1-1-1-1-1-1-3-4-|
|-------------------------|

Repeat Riff D



Riff F
Guitar 1&2
|-------------------------------------|
|-------------------------------------|
|-------------------------------------|
|--------------6-7---------------5\4--|x4
|-3-333-333-33-4-5--3-333-333-33-3\2--|
|-------------------------------------|


Second Solo (same with this one)
Guitar 1                                          #Scrap pick down strings
|--------------------------------------------------------------------------|
|--------------------------------------------------------------------------|
|---------7-6------------------------------------------------#-------------|
|-----7-6-----9-10~----9-7-7-10-8-8-11-9-9-12-10-10-13-11-11-xxxxxx--------|
|-7-6---------------------------------------------------------------9~~~~~-|
|--------------------------------------------------------------------------|

Dive bomb
|---------------------|
|---------------------|
|---------------------|
|---------------------|
|--*------------------|
|-2-------------------|

Solo Rhythm
Guitar 2
Repeat Riff D

Second Verse                         4th Time
|------------------------------------|----------|
|------------------------------------|----------|
|------------------------------------|----------|
|----------------------------------x4|----------|
|--------------4-2--------------4-5--|~~~~~~~~~~|
|-2-222-222-22-2-0-2-222-222-22-2-3--|~~~~~~~~~~|


Repeat Riff A
Repeat Verse
Repeat Riff B
Repeat Riff C

Ending
Guitar 1&2
|-----------------|
|-----------------|
|-----------------|
|---3-3-----------|
|---1-1---2-------|
|---------0-------|
Добавлено: 24.02.2012
Другие материалы по этой песне:

Страница создана 24.02.2012
http://primanota.ru/celtic-frost/beyond-the-north-winds-chords.htm
Привет, Гость.
Предлагаем пройти революционный курс по гитаре.
Подарок от PrimaNota.Ru, забирай!