PrimaNota.ru - самый крупный в мире бесплатный архив песенных текстов, аккордов, табулатур и нот


Celine Dion - One Heart - текст песни, бас-таба, видео

Регистрация Запомнить меня
Войти через:  Facebook Google Twitter Vk Yandex Mail.ru

Celine Dion - One Heart - текст песни, бас-таба, видео

Печатать
Просмотров: 79
One Heart
Taken from her million selling 2003 album, this title track by Celine Dion 
reached number 27 in UK. Tab by bass50611. Not absolutely exact but very
Close to original bass line. Comments is bass254@btinternet.com 

No Bass On Intro:

   APART FOR THE BRIDGE - PLAY QUAVERS THROUGHOUT THE SONG

Verse 1:  (Bass played quietly)
G|---------------------------------------------------------
D|---------------------------------------------------------
A|-66666666-66666666---------------------------------------
E|-------------------88888888-88888888---66666666-66666666-

G|-------------------------
D|----------------6/8-6-5--
A|-----------------------8-
E|-44444444---6666---------

Verse 2:  (Full Sound)
G|---------------------------------------------------------
D|---------------------------------------------------------
A|-66666666-66666666---------------------------------------
E|-------------------88888888-88888888---66666666-66666666-

                (Break)
G|----------------
D|----------------
A|-88888888-------
E|----------66666-

Chorus 1:
G|--------------------------------------------------------------------
D|--------------------------------------------------------------------
A|-66666666-66666666-----------------------------------------66666666-
E|-------------------66666666-66666666---44444444---66666666----------

                                                                   (Break)
G|-----------------------------------------------------------------------
D|-----------------------------------------------------------------------
A|-66666666-------------6/8-6-5----------------------8----66666666-66666-
E|---------66666666-6666-------8-44444444---6666-8\10-10-8---------------

For Verse 3 - Repeat Verse 1:

Verse 4:
G|---------------------------------------------------------------
D|----------------------------------------------------------3----
A|-66666666-66666666---33333333-33333333---11111111-1111-3\5-5-3-
E|---------------------------------------------------------------

                 (Break)
G|------------------
D|------------------
A|------------------
E|-11111111---66666-

Chorus 2:
G|--------------------------------------------------------------------
D|-------------------8------------------------------------------------
A|-66666666-6666-8\10-10-8------------------8-------------------------
E|------------------------66666666-6666-8\10-10---44444444---66666666-

G|----------------------------------------------------------
D|----------------------------------------------------------
A|-66666666-666666666------------------------------11111111-
E|--------------------66666666-66666666---44444444----------

Bridge:  (Play Crochets)                                     (Pause)
G|----------------------------------------------------------------
D|----------------------------------------------------------------
A|----1---3---------1---3---------1---3---------1---3-------1---3-
E|-4---------4---4---------4---4---------4---4--------4---4--------

Chorus 3:
G|------------------------------------------------------------------------
D|-------------------8----------------------------------------------------
A|-66666666-6666-8\10-10-8------------------8-------------------------8---
E|------------------------66666666-6666-8\10-10---44444444---6666-8\10-10-

G|-------------------------------------------------------------
D|-------------------------------------------------------------
A|-66666666-666666666------------------------------11111-3-4-5-
E|--------------------66666666-66666666---44444444-------------

Outro:
G|------------------------------------------------------------------------
D|-------------------8----------------------------------------------------
A|-66666666-6666-8\10-10-8------------------8-------------------------8---
E|------------------------66666666-6666-8\10-10---44444444---6666-8\10-10-

G|-----------------------
D|-----------------------
A|-66666666-66666666---6-
E|-----------------------

Добавлено: 30.10.2015
Другие материалы по этой песне:
  • Аккорды и текст

Страница создана 18.03.2012
http://primanota.ru/celine-dion/one-heart-chords.htm
Привет, Гость.
Предлагаем пройти революционный курс по гитаре.
Подарок от PrimaNota.Ru, забирай!