PrimaNota.ru - самый крупный в мире бесплатный архив песенных текстов, аккордов, табулатур и нот


Celine Dion - Feliz Navidad - текст песни, бас-таба, видео

Регистрация Запомнить меня
Войти через:  Facebook Google Twitter Vk Yandex Mail.ru

Celine Dion - Feliz Navidad - текст песни, бас-таба, видео

Печатать
Просмотров: 197
Feliz_Navidad.btab
Celine_Dion
TablEdited by Poppamies
Tuning : B E A D G 	Time Signature: 4/4

 tempo 140       |       |        |       |       |       |        
|--------------------------------|--------------------------------|
|--------------------------------|--------------------------------|
|0---------------------------0---|--------------------------------|
|--------------------0---2-------|----------------------------0---|
|--------------------------------|--------------------------------|

 |       |       |       |        |       |       |       |        
|--------------------------------|--------------------------------|
|--------------------------------|0-------------------------------|
|0---------------------------0---|------------3-------2-------0---|
|--------------------------------|--------------------------------|
|--------------------------------|--------------------------------|

 |       |       |       |        |       |       |       |        
|--------------------------------|--------------------------------|
|------------------------4/5-7---|7-------------------------------|
|--------------------------------|--------------------0-----------|
|--------------------------------|----------------------------0---|
|--------------------------------|--------------------------------|

 |       |       |       |        |       |   Feliz navi- |        
|--------------------------------|--------------------------------|
|--------------------0-------1---|2---2---------------------------|
|0-----------4-------------------|--------------------------------|
|--------------------------------|--------2-----------------------|
|--------------------------------|--------------------------------|

 dad...  |       |       |        |       |       Feliz navi-      
|--------------------------------|--------------------------------|
|----------------------------0---|--------0---1---2---------------|
|----0---1---2-------------------|----2---------------2-----------|
|4-------------------------------|------------------------0-------|
|--------------------------------|--------------------------------|

 dad...  |       |       |        |       |       Feliz navi-      
|--------------------------------|--------------------------------|
|--------------------------------|--------------------------------|
|0---0-----------0-----------4---|----0---------------------------|
|--------3---0-------------------|--------------------2-------2---|
|--------------------------------|--------------------------------|

 dad...  |     prospero  |        a
Добавлено: 06.08.2013
Другие материалы по этой песне:
  • Аккорды и текст

Страница создана 24.03.2012
http://primanota.ru/celine-dion/feliz-navidad-chords.htm
Привет, Гость.
Предлагаем пройти революционный курс по гитаре.
Подарок от PrimaNota.Ru, забирай!