PrimaNota.ru - самый крупный в мире бесплатный архив песенных текстов, аккордов, табулатур и нот


Celia Pavey - Scarborough Fair - таба, видео

Регистрация Запомнить меня
Войти через:  Facebook Google Twitter Vk Yandex Mail.ru

Celia Pavey - Scarborough Fair - таба, видео

Печатать
Просмотров: 378
-------------------------------------------------------------------------------
                             SCARBOROUGH FAIR/CANTICLE - Celia Pavey
-------------------------------------------------------------------------------
Tabbed by: alexmcnamee61
So Celia did an amazing cover of an amazing song. (official version https://www.youtube.com/watch?v=WeVf6fWu1as
here)

Song is in 3/4 time. It's mostly the same as the Simon and Garfunkel one, but the CAPO IS ON FOUR. 
(notes relative to capo)

Tuning: EADGBE

Intro

|---0--------------|---0--------------|-------------------|
|------------3-----|------------3-----|---0---------------|
|------0--------0--|------0--------0--|------0------------|
|---------4--------|---------4--------|-------------------|
|0-----------------|5-----------------|3-----------2------|
|------------------|------------------|-------------------|

Verse

|---0--------------|---0--------------|---0--------------|---0--------------|
|------------3-----|------------0-----|------------3-----|------------0-----|
|------0--------0--|------2--------2--|------0--------0--|------2--------2--|
|---------4--------|---------2--------|---------4--------|---------2--------|
|0-----------------|0-----------------|0-----------------|0-----------------|
|------------------|------------------|------------------|------------------|

Are      you        going       to      Scar   -borough    Fair?

|---0--------------|---0--------------|------------------|---0--------------|---0--------------|
|------------3-----|------------0-----|---1--------1--0--|------------3-----|------------0-----|
|------0--------0--|------2--------2--|------0-----------|------0--------0--|------2--------2--|
|---------4--------|---------2--------|---------2--2--0--|---------4--------|---------2--------|
|0-----------------|0-----------------|3-----------------|0-----------------|0-----------------|
|------------------|------------------|------------------|------------------|------------------|


           Pars - ley       sage    rose  mary  and  thyme.
|------------------|---0--------------|0-----2-----------|---0--------------|---0--------------|
|---1--------1-----|------------0-----|-------------3----|------------3-----|------------0-----|
|------0--------0--|------2--------2--|---0------2-----2-|------0--------0--|------2--------2--|
|---------2--------|---------2--------|------0-----------|---------4--------|---------2--------|
|3-----------------|0-----------------|3-----------------|0-----------------|0-----------------|
|------------------|------------------|------------------|------------------|------------------|

                                  Re   member           me           to the

|---0--------------|---0--------------|---0--------------|---0--------------|
|------------3-----|------------0-----|------------3-----|------------0-----|
|------0--------0--|------2--------2--|------0--------0--|------2--------2--|
|---------4--------|---------2--------|---------4--------|---------2--------|
|0-----------------|0-----------------|0-----------------|0-----------------|
|------------------|------------------|------------------|------------------|


one who lives there
|------------------|------------------|
|---1--------------|1------1---1~0----|
|------0-----0-----|------------------|
|---------2-----2--|2------2---2~0----|
|3-----------------|------------------|
|------------------|------------------|

he            once  was         a     true  love of 

|---0--------0-----|--------------------|------------------|
|---------------1--|--1-----------1-----|0-----0~1~0-------|
|------2-----------|-----0-----0--------|------------------|
|---------2--------|--------2-----2-----|0-----0~2~0-------|
|0-----------------|3-------------------|------------------|
|------------------|--------------------|------------------|

mine

|---0--------------|---0--------------|---0--------------|---0--------------|
|------------3-----|------------0-----|------------3-----|------------0-----|
|------0--------0--|------2--------2--|------0--------0--|------2--------2--|
|---------4--------|---------2--------|---------4--------|---------2--------|
|0-----------------|0-----------------|0-----------------|0-----------------|
|------------------|------------------|------------------|------------------|

Tell him  to       make me a      cam   bric   shirt

|---0--------------|---0--------------|------------------|---0--------------|---0--------------|
|------------3-----|------------0-----|---1--------1--0--|------------3-----|------------0-----|
|------0--------0--|------2--------2--|------0-----------|------0--------0--|------2--------2--|
|---------4--------|---------2--------|---------2--2--0--|---------4--------|---------2--------|
|0-----------------|0-----------------|3-----------------|0-----------------|0-----------------|
|------------------|------------------|------------------|------------------|------------------|


           Pars - ley       sage    rose  mary  and  thyme.
|------------------|---0--------------|0-----2-----------|---0--------------|---0--------------|
|---1--------1-----|------------0-----|-------------3----|------------3-----|------------0-----|
|------0--------0--|------2--------2--|---0------2-----2-|------0--------0--|------2--------2--|
|---------2--------|---------2--------|------0-----------|---------4--------|---------2--------|
|3-----------------|0-----------------|3-----------------|0-----------------|0-----------------|
|------------------|------------------|------------------|------------------|------------------|

                                  without           no           seems

|---0--------------|---0--------------|---0--------------|---0--------------|
|------------3-----|------------0-----|------------3-----|------------0-----|
|------0--------0--|------2--------2--|------0--------0--|------2--------2--|
|---------4--------|---------2--------|---------4--------|---------2--------|
|0-----------------|0-----------------|0-----------------|0-----------------|
|------------------|------------------|------------------|------------------|


nor needlework
|------------------|------------------|
|---1--------------|1------1---1~0----|
|------0-----0-----|------------------|
|---------2-----2--|2------2---2~0----|
|3-----------------|------------------|
|------------------|------------------|

then            he'll be         a     true  love of 

|---0--------0-----|--------------------|------------------|
|---------------1--|--1-----------1-----|0-----0~1~0-------|
|------2-----------|-----0-----0--------|------------------|
|---------2--------|--------2-----2-----|0-----0~2~0-------|
|0-----------------|--------------------|------------------|
|------------------|3-------------------|------------------|

mine

|---0--------------|---0--------------|---0--------------|---0--------------|
|------------3-----|------------0-----|------------3-----|------------0-----|
|------0--------0--|------2--------2--|------0--------0--|------2--------2--|
|---------4--------|---------2--------|---------4--------|---------2--------|
|0-----------------|0-----------------|0-----------------|0-----------------|
|------------------|------------------|------------------|------------------|


Tell him  to       fina me an      acre of land

|---0--------------|---0--------------|------------------|---0--------------|---0--------------|
|------------3-----|------------0-----|---1--------1--0--|------------3-----|------------0-----|
|------0--------0--|------2--------2--|------0-----------|------0--------0--|------2--------2--|
|---------4--------|---------2--------|---------2--2--0--|---------4--------|---------2--------|
|0-----------------|0-----------------|3-----------------|0-----------------|0-----------------|
|------------------|------------------|------------------|------------------|------------------|


           Pars - ley       sage    rose  mary  and  thyme.
|------------------|---0--------------|0-----2-----------|---0--------------|---0--------------|
|---1--------1-----|------------0-----|-------------3----|------------3-----|------------0-----|
|------0--------0--|------2--------2--|---0------2-----2-|------0--------0--|------2--------2--|
|---------2--------|---------2--------|------0-----------|---------4--------|---------2--------|
|3-----------------|0-----------------|3-----------------|0-----------------|0-----------------|
|------------------|------------------|------------------|------------------|------------------|

                                  between     the salt  water   and

|---0--------------|---0--------------|---0--------------|---0--------------|
|------------3-----|------------0-----|------------3-----|------------0-----|
|------0--------0--|------2--------2--|------0--------0--|------2--------2--|
|---------4--------|---------2--------|---------4--------|---------2--------|
|0-----------------|0-----------------|0-----------------|0-----------------|
|------------------|------------------|------------------|------------------|


the sea strand
|------------------|------------------|
|---1--------------|1------1---1~0----|
|------0-----0-----|------------------|
|---------2-----2--|2------2---2~0----|
|3-----------------|------------------|
|------------------|------------------|

then            he'll be         a     true  love of 

|---0--------0-----|--------------------|------------------|
|---------------1--|--1-----------1-----|0-----0~1~0-------|
|------2-----------|-----0-----0--------|------------------|
|---------2--------|--------2-----2-----|0-----0~2~0-------|
|0-----------------|--------------------|------------------|
|------------------|3-------------------|------------------|

mine

|---0--------------|---0--------------|---0--------------|---0--------------|
|------------3-----|------------0-----|------------3-----|------------0-----|
|------0--------0--|------2--------2--|------0--------0--|------2--------2--|
|---------4--------|---------2--------|---------4--------|---------2--------|
|0-----------------|0-----------------|0-----------------|0-----------------|
|------------------|------------------|------------------|------------------|


Tell him  to       reap it in a      sickle of leather

|---0--------------|---0--------------|------------------|---0--------------|---0--------------|
|------------3-----|------------0-----|---1--------1--0--|------------3-----|------------0-----|
|------0--------0--|------2--------2--|------0-----------|------0--------0--|------2--------2--|
|---------4--------|---------2--------|---------2--2--0--|---------4--------|---------2--------|
|0-----------------|0-----------------|3-----------------|0-----------------|0-----------------|
|------------------|------------------|------------------|------------------|------------------|


           Pars - ley       sage    rose  mary  and  thyme.
|------------------|---0--------------|0-----2-----------|---0--------------|---0--------------|
|---1--------1-----|------------0-----|-------------3----|------------3-----|------------0-----|
|------0--------0--|------2--------2--|---0------2-----2-|------0--------0--|------2--------2--|
|---------2--------|---------2--------|------0-----------|---------4--------|---------2--------|
|3-----------------|0-----------------|3-----------------|0-----------------|0-----------------|
|------------------|------------------|------------------|------------------|------------------|

                                  and gather         it all in a sicke

|---0--------------|---0--------------|---0--------------|---0--------------|
|------------3-----|------------0-----|------------3-----|------------0-----|
|------0--------0--|------2--------2--|------0--------0--|------2--------2--|
|---------4--------|---------2--------|---------4--------|---------2--------|
|0-----------------|0-----------------|0-----------------|0-----------------|
|------------------|------------------|------------------|------------------|


of heather
|------------------|------------------|
|---1--------------|1------1---1~0----|
|------0-----0-----|------------------|
|---------2-----2--|2------2---2~0----|
|3-----------------|------------------|
|------------------|------------------|

then            he'll be         a     true  love of (slow down)

|---0--------0-----|--------------------|------------------|
|---------------1--|--1-----------1-----|0-----0~1~0-------|
|------2-----------|-----0-----0--------|------------------|
|---------2--------|--------2-----2-----|0-----0~2~0-------|
|0-----------------|--------------------|------------------|
|------------------|3-------------------|------------------|

mine
   (very gently)
|---0--------------|
|---0--------------|
|---2--------------|
|---2--------------|
|---0--------------|
|---0--------------|

As I said, it's very similar to S&G's version, though Celia has modified parts of it.

Hope you enjoy!
Добавлено: 01.01.2016
Другие материалы по этой песне:
  • Аккорды и текст

Страница создана 01.01.2016
http://primanota.ru/celia-pavey/scarborough-fair-chords.htm
Привет, Гость.
Предлагаем пройти революционный курс по гитаре.
Подарок от PrimaNota.Ru, забирай!