PrimaNota.ru - самый крупный в мире бесплатный архив песенных текстов, аккордов, табулатур и нот


Celia Pavey - Red - таба, видео

Регистрация Запомнить меня
Войти через:  Facebook Google Twitter Vk Yandex Mail.ru

Celia Pavey - Red - таба, видео

Печатать
Просмотров: 239
Уроки эстрадного вокала в Санкт-Петербурге
-------------------------------------------------------------------------------
                           RED - CELIA PAVEY
-------------------------------------------------------------------------------
Tabbed by: GRACE
E-mail: gracenualacollins@gmail.com



Tuning: STANDARD, NO CAPO 

Like everyone this is my first tab, I really hope it sounds okay to other people, but yeah I think its okay?
Please let me know if there are any huge mistake? and be nice-ish
(tbh not really sure about stumming pattern, just play whatever you think sounds good, I like playing the 
E string and then the D and G at the same time but personal choice. (and shes like super skilled and
doing all this crazy stuff but I find my way works okay too)) 

INTRO

e|---------------------------------------------------------------------------|
B|---------------------------------------------------------------------------|
G|---7---11---4--------------------------------------------------------------|
D|---------------------------------------------------------------------------|
A|---------------------------------------------------------------------------|    x2
E|---7---10---3--------------------------------------------------------------|

VERSE 
You walk away, again.....
e|---------------------------------------------------------------------------|
B|---------------------------------------------------------------------------|
G|---4---2---7---6-----------------------------------------------------------|
D|---------------------------------------------------------------------------| x2
A|---------------------------------------------------------------------------|
E|---3---2---7---5-----------------------------------------------------------|

Chorus 
And I wonder, will this colour river fade?...
e|---------------------------------------------------------------------------|
B|---------------------------------------------------------------------------|
G|---4---2---7---6-----------------------------------------------------------|
D|---------------------------------------------------------------------------|
A|---------------------------------------------------------------------------| x2
E|---3---2---7---5-----------------------------------------------------------|

But I love you, to the weakness that you bring, my love.....
e|---------------------------------------------------------------------------|
B|---------------------------------------------------------------------------|
G|---7---11---4--------------------------------------------------------------|
D|---------------------------------------------------------------------------| x3
A|---------------------------------------------------------------------------|
E|---7---10---3--------------------------------------------------------------|

Never slipping from my head..... 
e|---------------------------------------------------------------------------|
B|---------------------------------------------------------------------------|
G|---0---7---6---4-----------------------------------------------------------|
D|---------------------------------------------------------------------------|
A|---------------------------------------------------------------------------|
E|---0---7---5---3-----------------------------------------------------------|


And then the whole thing goes like;
INTRO
VERSE
CHORUS 
VERSE
CHORUS 
CHORUS (FROM THE 'I love you..' bit) x2

************************************

| /   slide up
| \   slide down
| h   hammer-on
| p   pull-off
| ~   vibrato
| +   harmonic
| x   Mute note
| b   Bend
| pb  Pre-bend
| br  Bend release
| pbr Pre-bend release
| brb Bend release bend

************************************
Добавлено: 01.01.2016
Вам также может быть интересно:
Другие материалы по этой песне:
  • Аккорды и текст

Страница создана 01.01.2016
http://primanota.ru/celia-pavey/red-chords.htm
Привет, Гость.
Предлагаем пройти революционный курс по гитаре.
Подарок от PrimaNota.Ru, забирай!