PrimaNota.ru - самый крупный в мире бесплатный архив песенных текстов, аккордов, табулатур и нот


Celesty - Lost In Deliverance - текст песни, таба, видео

Регистрация Запомнить меня
Войти через:  Facebook Google Twitter Vk Yandex Mail.ru

Celesty - Lost In Deliverance - текст песни, таба, видео

Печатать
Просмотров: 140
Its me bradleishman14@live.com.au and i havent been
playing for very long but i thought id give it a shot
seeming as noone seems to have a text tab for this song
i only have the intro lead and rhythm still working on 
verse but should have it done when i have time and yeh 
its by ear and only my second tab so if theres any 
mistakes please tell me....enjoy and STAY METAL :)


Intro riff Lead/with keyboard
E-------------------------------------------------------------|
B-------------------11-11h13h15-13-11-------------------------|
G--12-12h14h15-14-12-----------------12-12h14h15-12-14--12b---|
D-----------------------------------------------------15------|
A-------------------------------------------------------------|
D-------------------------------------------------------------|

 Intro Rhythm
E----------------------------------------------------------------------|
B----------------------------------------------------------------------|
G----------------------------------------------------------------------|
D--5--8--10---3-5---5--8--10---3-5---555555-888888-1010101010101010-3-5|x2
A--5--8--10---3-5---5--8--10---3-5---555555-888888-1010101010101010-3-5|
E--3--6--8----1-3---3--6--8----1-3---333333-666666-8-8-8-8-8-8-8-8--1-3|

Riff 1
E-------------------------------------------------------------|
B-------------------------------------------------------------|
G-------------------------------------------------------------|
D--10---8---10---6--8---10---8---6---8~-----------------------|
A--10---8---10---6--8---10---8---6---8~-----------------------|
E--8----6---8----4--6---8----6---4---6~-----------------------|
Добавлено: 29.07.2012
Вам также может быть интересно:
Другие материалы по этой песне:

Страница создана 06.03.2012
http://primanota.ru/celesty/lost-in-deliverance-chords.htm
Привет, Гость.
Предлагаем пройти революционный курс по гитаре.
Подарок от PrimaNota.Ru, забирай!