PrimaNota.ru - самый крупный в мире бесплатный архив песенных текстов, аккордов, табулатур и нот


Cees Hartog - El Papamoscas - таба, видео

Регистрация Запомнить меня
Войти через:  Facebook Google Twitter Vk Yandex Mail.ru

Cees Hartog - El Papamoscas - таба, видео

Печатать
Просмотров: 426
El Papamoscas by Cees Hartog

e|-0-0-0-|0-1-0-------------|----------------------0|-0-0-0-1-0---1-0---0---|
b|-------|------3-1-0-1-0---|1-1-1-0-1-3-0-1-3-1-3--|-----------3-----3--3-1|
G|-------|----------------2-|-----------------------|-----------------------|
D|-------|------------------|-----------------------|-----------------------|
A|-------|------------0-----|------------------0----|-------------------0---|
E|-------|0-----------------|------0----------------|-------0---------------|

e|-0------------------|-----------------------------|----------------0|
b|---3-1-3-1-0-3-1-0--|---------------------0-1--0-1|0-1-2-0-1-2-1-3--|
G|-------------------2|-2-2-2-1-2-4-1-2-4-2-----2---|-----------------|
D|--------------------|-----------------------------|-----------------|
A|-------------------0|-------------------0---------|------------0----|
E|-------0------------|-------0---------------------|0----------------|

e|0-0-0-0-1-0------------|--------------------|
b|------------3-1-0-1-0--|-1-1-1-0-1-3-1-0----|
G|----------------------2|-----------------1-2|
D|-----------------------|--------------------|
A|------------------0----|-------------------0|
E|------0----------------|-------0------------|

e|------|-----------------------------------------0|
b|------|---------------0-1---0-1-0-1-3-0-1-3-1-3--|
G|-2-2-2|-1-2-4-1-2-4-2-----2----------------------|
D|------|------------------------------------------|
A|------|-------------0-----------------------3----|
E|------|-0-----------------------3----------------|

e|-0-0-0-|-1-0---1-0---0-----0----|--------------|
b|-------|-----3-----3---3-1---3-1|-3-1-0-3-1-0--|
G|-------|------------------------|-------------2|
D|-------|-0----------------------|--------------|
A|-------|-------------0----------|-------------0|
E|-------|------------------------|-0------------|

e|-0-0-0-|     |G7    C    |E     Am   |
b|-------|
G|-------|
D|-------|
A|-------|
E|-------|

e|-0-0-0-|     |G7    C    |E          |
b|-------|
G|-------|
D|-------|
A|-------|
E|-------|

e|-0------------|
b|---3-1-0------|
G|---------2----|
D|--------------|
A|---------0----|
E|--------------|       End   
Добавлено: 26.02.2012
Другие материалы по этой песне:
  • Аккорды и текст

Страница создана 26.02.2012
http://primanota.ru/cees-hartog/el-papamoscas-chords.htm
Привет, Гость.
Предлагаем пройти революционный курс по гитаре.
Подарок от PrimaNota.Ru, забирай!