PrimaNota.ru - самый крупный в мире бесплатный архив песенных текстов, аккордов, табулатур и нот


Cccp - Morire - текст песни, таба, бас-таба, видео

Регистрация Запомнить меня
Войти через:  Facebook Google Twitter Vk Yandex Mail.ru

Cccp - Morire - текст песни, таба, бас-таба, видео

Печатать
Просмотров: 143
		   --------
 Morire:

Di Marco Bertolino  i097556@spv19.ing.uniroma1.it>



      D#    B    Mixii

E|----------------12----|       s: slide
B|----------------12----|       h: hammer-on
G|----3-----4-----14----|       p: pull-off
D|----1-----4-----------|       b: bend
A|----1-----2-----------|       r: release
E|----------------------|       ~: vibrato



Intro:

  Gtr. 2  (Arr. for bass)                     Repeat

E|---------------------------------------------------|
B|---------------------------------------------------|
G|---------------------------------------------------|
D|----------2--------------0-----------2--------2----|
A|-------2--------------2-----------2-----2----------|
E|----0-----------0--2-----------0-----------0-------|



  Gtr. 1

E|-----------------------------------------s10-10-10--12px----------|
B|----s12~--12-10-8--8-7--------8-s10-s12-------------------12~~----|

G|-----------------------7s9~---------------------------------------|
D|------------------------------------------------------------------|
A|------------------------------------------------------------------|
E|------------------------------------------------------------------|



E|---s12-12-12--s10-10-10-------------------------------------------|
B|-------------------------12-12-10------------------10----10-------|
G|----------------------------------12-11--7s9~---12----12----12----|
D|------------------------------------------------------------------|
A|------------------------------------------------------------------|
E|------------------------------------------------------------------|



E|-----------------------------------------s10--s12-12~---s12-12----|
B|---10----10------------------------10-12--------------------------|
G|------12----12px--7--7s9~~------12--------------------------------|
D|------------------------------------------------------------------|
A|------------------------------------------------------------------|
E|------------------------------------------------------------------|



E|---12-10----------------------------------------------------------|
B|---------12-10--10h12-10-----------------7~-9px------------10-----|
G|-------------------------12-11-9----s7-9--------7-9~----12--------|
D|------------------------------------------------------------------|
A|------------------------------------------------------------------|
E|------------------------------------------------------------------|



E|---------------------------------------|
B|------10----10----10-------------------|
G|---12----12----12----12px--7--7s9~~----|
D|---------------------------------------|
A|---------------------------------------|
E|---------------------------------------|





E|--------------------------------------------------|
B|----------5-----------3----------3---------(5)----|
G|-------4-----------4----------4-------------------|
D|----2--------2--4----------4---------4--2---------|
A|--------------------------------------------------|
E|--------------------------------------------------|


Non so dei vostri buoni propositi perche' non mi riguardano
Esiste una sconfitta pari al venire corroso
Che non ho scelto io ma e' dell'epoca in cui vivo
A morte e' insopportabile per chi non riesce a vivere
A morte e' insopportabile per chi non deve vivere



     D#                   B

E|------------1--------------------2------------|
B|---------4------4--------------------4--------|
G|------3------------3----------4---------4-----|
D|---1-----------------------4------------------|
A|------------------------2---------------------|
E|----------------------------------------------|



[Re#] Lode a Mishima, [Si] e a Majakovski

[Re#] Lode a Mishima, [Si] e a Majakovski

[Re#] Lode a Mishima, [Si] e a Majakovski

[Re#] Tu devi scomparire, anche se non ne hai voglia

[Si] E puoi contare solo su te


Basso:

G|---------------9--9--9-------------|
D|----------6-------------9--9--6----|
A|----7--9---------------------------|
E|-----------------------------------|



G|-----------------------------------|
D|---------6-------------------------|
A|---7--9-----7---5--6--7---5--6--7--|
E|-----------------------------------|



 [Mixii]

Produci consuma crepa produci consuma crepa produci consuma
crepa
Sbattiti fatti crepa sbattiti fatti crepa sbattiti fatti
crepa
Cotonati i capelli riempiti di borchie rompiti le palle
rasati i capelli
Crepa crepa crepa

Cotonati i capelli riempiti di borchie
Rompiti le palle rasati i capelli crepa crepa crepa
crepa crepa...


N.B
Ho qualche dubbio su quest'ultima parte, sia per il

basso  ---5--6--7--- che per la chitarra [Mixii] , comunque l'idea e' quella
...

#-------------------------------ATTENZIONE
PREGO--------------------------------#
# Questo file e' opera esclusiva del suo autore e rappresenta la sua
personale  #
# interpretazione della canzone. Potete usare qusto file solo per uso
privato,  #
# studio o esercizio. Se diffondete questo file (cosa che deve avvenire in
modo #
# tassativamente gratuito!) ricordatevi per favore di citarne la fonte.
Grazie. #
#---------------------------------------------------------------------------
----#


Lo spartito è stato prelevato dal seguente indirizzo:
http://www.geocities.com/SunsetStrip/Stage/6500/




     
Добавлено: 02.10.2013
Другие материалы по этой песне:
  • Аккорды и текст

Страница создана 01.04.2012
http://primanota.ru/cccp/morire-chords.htm
Привет, Гость.
Предлагаем пройти революционный курс по гитаре.
Подарок от PrimaNota.Ru, забирай!