PrimaNota.ru - самый крупный в мире бесплатный архив песенных текстов, аккордов, табулатур и нот


Cccp - Live In Pankow - таба, бас-таба, видео

Регистрация Запомнить меня
Войти через:  Facebook Google Twitter Vk Yandex Mail.ru

Cccp - Live In Pankow - таба, бас-таба, видео

Печатать
Просмотров: 194
Уроки эстрадного вокала в Санкт-Петербурге
		   --------
Live in Pankow:

Di Marco Bertolino  i097556@spv19.ing.uniroma1.it>



    E    Sol#   A    D    C    B    F    A#

E|-------------(5)----------------------(6)---|
B|-------------(5)----------------------(6)---|
G|-------------(6)---7----5----4---10---(7)---|
D|----2----6----7----7----5----4---10----8----|
A|----2----6----7----5----3----2----8----8----|
E|----0----4----5------------------------6----|


Basso:

G|------------------------------------|
D|------------------------------------|
A|------------------------------------|
E|--0-0-0-0-0-0-0-0s4-4-4-4-4-4-4-4---|



G|--------------------------------------------|
D|--------------------------------------------|
A|--------------------------------------------|
E|--5-5-5-5-5-5-5-5s10-10-10-10-10-10-10-10---|



 [Mi]   [Sol#]   [La]   [Re]



     E                    Sol#

E|--------------------------------------------|
B|---5-5-0--5-5-0--5-0----5-5-0--5-5-0--5-0---|
G|--------------------------------------------|
D|--------------------------------------------|
A|--------------------------------------------|
E|--------------------------------------------|


     A                    D

E|--------------------------------------------|
B|---5-5-0--5-5-0--5-0----5-5-0--5-5-0--5-0---|
G|--------------------------------------------|
D|--------------------------------------------|
A|--------------------------------------------|
E|--------------------------------------------|



[Mi] Live in Mosca, [Sol#] live in Budapest, [La] live in Varsavia [Re]

[Mi] Live in Sofia, [Sol#] live in Praga, [La] live in Pankow [Re]

[Mi] Haupstadt der DDR, [Sol#] haupstadt der DDR, [La] haupstad der DDR [Re]


 [La]


[Do] Compagni est-europei, [Si] uno sforzo ancora

[Fa] Delle sale da ballo un [La] po' piu' che di merda [Do]
Un'[Si] opinione pubblica un [Fa] poco meno stupida

[La] Delle sale da ballo un [Do] po' piu' che di merda [Si] [Fa]


[Mi] Voglio rifugiarmi sotto il [Sol#] Patto di Varsavia

Con un [La] piano quinquennale la [Re] stabilita'

Live in Mosca, live in Budapest, live in Varsavia

Live in Sofia, live in Praga, live in Pankow


     A#              A

E|------6---------------5------------|
B|--------6-----6---------5-----5----|
G|----------7---------------6--------|
D|------------8---------------7------|
A|-----------------------------------|
E|---6---------------5---------------|



[La#] Ost Berlin, [La] West Berlin

Ost Berlin, West Berlin

Ost Berlin, West Berlin

Ost Berlin, West Berlin

Trance Europa Express

Trance Europa Express

Trance Europa Express

Trance Europa Express


 [La]


[Do] Qua e di la del muro, [Si] l'Europa persa in trance

In [Fa] Alexander Platz, come [La] in Piazza del Duomo

[Do] L'Europa persa in trance [Si] ultimamente, i [Fa] miei amici anche

[La] I miei amici anche, [Do] sotto la NATO o il [Si] Patto di Varsavia [Fa]



[Mi] Provate a rifugiarvi sotto il [Sol#] Patto di Varsavia

Con un [La] piano quinquennale la [Re] stabilita'

Live in Mosca, live in Budapest, live in Varsavia

Live in Sofia, live in Praga, live in Pankow

Haupstadt der DDR, un pezzo di Berlino
Haupstadt der DDR, un pezzo di Berlino
Live in Pankow!


#-------------------------------ATTENZIONE
PREGO--------------------------------#
# Questo file e' opera esclusiva del suo autore e rappresenta la sua
personale  #
# interpretazione della canzone. Potete usare qusto file solo per uso
privato,  #
# studio o esercizio. Se diffondete questo file (cosa che deve avvenire in
modo #
# tassativamente gratuito!) ricordatevi per favore di citarne la fonte.
Grazie. #
#---------------------------------------------------------------------------
----#


Lo spartito è stato prelevato dal seguente indirizzo:
http://www.geocities.com/SunsetStrip/Stage/6500/




     
Добавлено: 25.10.2013
Другие материалы по этой песне:

Страница создана 13.06.2012
http://primanota.ru/cccp/live-in-pankow-chords.htm
Привет, Гость.
Предлагаем пройти революционный курс по гитаре.
Подарок от PrimaNota.Ru, забирай!