PrimaNota.ru - самый крупный в мире бесплатный архив песенных текстов, аккордов, табулатур и нот


Cccp - Fedeli Alla Linea - аккорды и текст, таба, видео

Регистрация Запомнить меня
Войти через:  Facebook Google Twitter Vk Yandex Mail.ru

Cccp - Fedeli Alla Linea - аккорды и текст, таба, видео

Печатать
Просмотров: 157
Fedeli Alla Linea
Cccp
		   e: Thu, 12 Mar 1998 16:21:08 +0100 (MET)



C.C.C.P. - Curami
Da "Affinità-Divergenze fra il Compagno Togliatti
e Noi del conseguimento della maggiore età"

N.B
Il pezzo iniziale della chitarra (fatto con gli armonici)
è un arrangiamento approssimativo dell'originale, suona-
to, credo, con uno xilofono.

 CHORDS:
      D     B     F#    E    F#ii
E|---------------------------------|           s: slide
B|---------------------------------|           h: hammer-on
G|----7-----4-----------9----11----|           p: pull-off
D|----7-----4-----4-----9----11----|           b: bend
A|----5-----2-----4-----7-----9----|           r: release
E|----------------2-----0----------|           ~: vibrato

     D           B           F#
   Harm. ...........................................|
E|------------------------------------------------------|
B|--------------12------12--------------------12--------|
G|------------------------------------------------------|
D|---12--7--12------12------12--7--12--7--12------7-----|
A|------------------------------------------------------|
E|------------------------------------------------------|

     E            F#ii         E            F#ii
   Harm. ...........................................|
E|------------------------------------------------------|
B|-------12------------------------12-------------------|
G|---7-------------------------7------------------------|
D|----------------12---7--------------------12---7------|
A|------------------------------------------------------|
E|------------------------------------------------------|

     D                B           F#
E|-----------------------------------------------------------|
B|-----------------------------------------------------------|
G|--11-11-11----11----7-7-7---7---------3---3-3-4-4-4-3---3s-|
D|-----------12----12-------9---9s4-4-4---4-------------4----|
A|-----------------------------------------------------------|
E|-----------------------------------------------------------|

     D                B                 F#
E|-----------------------------------------------------------|
B|-----------------------------------------------------------|
G|--11-11-11----11----14-14-14----14----------3---3-3-4-4-4--|
D|-----------12----12----------16----16s4-4-4---4------------|
A|-----------------------------------------------------------|
E|-----------------------------------------------------------|

              D                     B      F#
E|----------|---------------------|-----|------|-------------|
B|----------|---------------------|-----|------|-------------|
G|--3---3s--|--11-11-11----11-----|--/--|--//--|--(11)s18~~--|
D|----4-----|-----------12----12--|--/--|--//--|-------------|
A|----------|---------------------|-----|------|-------------|
E|----------|---------------------|-----|------|-------------|


 E  F#ii  E  F#ii

 D  B  F#

[D] Curami, [B] curami, [F#] curami
Prendimi in cura da te, prendimi in cura da te
Curami, curami, curami
Che ti venga voglia di me, che ti venga voglia di me
Curami, curami, curami

  E  F#ii

[E] Verranno al contrattacco
Con [F#ii] elmi ed armi nuove
Verranno al contrattacco
Ma intanto adesso

Curami, curami, curami
Curami, curami, curami
Curami, curami [D]

[D] Sono la terapia (x29)

    D
G|---------------|------------------------------------|
D|---------------|------------------------------------|
A|---------------|-----12----12----12----12-------13--|
E|--10-10-10-10--|--10----10----10----10----10-11-----|

Verranno al contrattacco
Con elmi ed armi nuove
Verranno al contrattacco
Ma intanto adesso

Curami, curami, curami
Curami, curami, curami
Curami, curami

#---------------------------------------------------------------#
  Transcibed from Marco Bertolino  i097556@spv.ing.uniroma1.it>
#---------------------------------------------------------------#     
Добавлено: 04.09.2013
Другие материалы по этой песне:
  • Аккорды и текст

Страница создана 12.06.2012
http://primanota.ru/cccp/fedeli-alla-linea-chords.htm
Привет, Гость.
Предлагаем пройти революционный курс по гитаре.
Подарок от PrimaNota.Ru, забирай!