PrimaNota.ru - самый крупный в мире бесплатный архив песенных текстов, аккордов, табулатур и нот


Cccp - A Ja Ljublju Sssr - аккорды и текст, таба, видео

Регистрация Запомнить меня
Войти через:  Facebook Google Twitter Vk Yandex Mail.ru

Cccp - A Ja Ljublju Sssr - аккорды и текст, таба, видео

Печатать
Просмотров: 191
Уроки эстрадного вокала в Санкт-Петербурге
A Ja Ljublju Sssr
Cccp
		   te: Fri, 20 Feb 1998 14:50:52 -0500


C.C.C.P. - A ja ljublju S.S.S.R.
Da "Socialismo e Barbarie"


 CHORDS:
      A     F#     C     B     E     D    Evii
E|----------------------------------------------|   s: slide
B|----------------------------------------------|   h: hammer-on
G|-----------------5-----4-----------7-----9----|   p: pull-off
D|----7-----4------5-----4-----2-----7-----9----|   b: bend
A|----7-----4------3-----2-----2-----5-----7----|   r: release
E|----5-----2------------------0----------------|   ~: vibrato


    Evii
E|-------------------------------------------------------------------|
B|---s8~-------7-------s5--------------------------------------------|
G|--------7--9------------7--5-7-----------------7s9--11--12s14~~----|
D|----------------9--------------5---7---9--10-----------------------|
A|-------------------------------------------------------------------|
E|-------------------------------------------------------------------|

    Evii
E|-------------------------------------------------------------------|
B|--s12--10----10----------------------------------------------------|
G|----------12--------s12--11-9-11----s9---------------s12-11-9------|
D|----------------12---------------9------12-10-12--------------12~--|
A|-------------------------------------------------10----------------|
E|-------------------------------------------------------------------|

       C    D             A            C    D           E
E|-------------------------------------------------------------------|
B|----s12~--10-----------10~-----------------------------------------|
G|-------------12--11h12--------------s12~--11-9-----9--11~----------|
D|---------------------------12~------------------12---------9~------|
A|-------------------------------------------------------------------|
E|-------------------------------------------------------------------|

     C               G             C         B      C           B
E|-------------------------------------------------------------------|
B|-------------------------------------------------------------s10~--|
G|--s9~--7-----------7~-----------s12~--11-9-------s12~--11-12-------|
D|---------10--9h10----(10)s5~---------------12~---------------------|
A|-------------------------------------------------------------------|
E|-------------------------------------------------------------------|

 Evii

Voglio odorare il sapore celeste del ferro
Voglio vedere il profumo sanguigno del fuoco
[C] Esiste, lo so

 E  C  F#
 E  C

E|------------------------|
B|------------------------|
G|------------------------|
D|-------9s10--9----------|
A|---s7-----------7s9~~---|
E|------------------------|

[F#] Non tutti possono tendendo le braccia
[E] Afferrare la sorte e [C] schiaffeggiarle la faccia [F#]
[E] Prenderla solida ed [C] obbediente
[F#] Renderla tenera e incandescente

[E] A ja ljublju [C] SSSR
[F#] A ja ljublju SSSR
[E] A ja ljublju [C] SSSR
[F#] A ja ljublju SSSR
[E] A ja ljublju [C] SSSR
[F#] A ja ljublju SSSR

Il fuoco di un cuore che incendia la mente
Può fondere il gelo del magma bollente
Onore al braccio che muove il telaio
Onore alla forza che muove l'acciaio
Esiste, lo so

A ja ljublju SSSR
A ja ljublju SSSR
A ja ljublju SSSR
A ja ljublju SSSR
A ja ljublju SSSR
A ja ljublju SSSR     
Добавлено: 27.06.2013
Другие материалы по этой песне:
  • Аккорды и текст

Страница создана 19.04.2012
http://primanota.ru/cccp/a-ja-ljublju-sssr-chords.htm
Привет, Гость.
Предлагаем пройти революционный курс по гитаре.
Подарок от PrimaNota.Ru, забирай!