PrimaNota.ru - самый крупный в мире бесплатный архив песенных текстов, аккордов, табулатур и нот


Cc Cowboys - Et Skolebrod I Storefri - таба, видео

Регистрация Запомнить меня
Войти через:  Facebook Google Twitter Vk Yandex Mail.ru

Cc Cowboys - Et Skolebrod I Storefri - таба, видео

Печатать
Просмотров: 129
Et Sklolebrød i Storefri
- CC Cowboys


Album: Himmeltitter
Transcribed by: Paul Ramone

Capo 2.bånd (Jeg har skrevet uten Capo, så en Em blir F#m med capo)

Intro:

Em           C    G                          Em      C           G
-3-----2-------------------------------------3-------0h3------3--57------------|
---0---0-3--5p0--0-0-0-0-0-0-0-0-0-0-0-0------0---0-----1-----------0---0------|
-----0------------0-0-0-0-0-0-0-0-0-0-0-0--------0---------0-----------0-------|
-2----------------0-0-0-0-0-0-0-0-0-0-0-0----2-------2-------------------------|
---------2--3------------------------------------------------------------------|
------------------3-3-3-3-3-3-3-3-3-3-3-3------------------------3-------------|


-7/5p3p0----------------------------------------------------------------------|
------------------------------------------------------------------------------|
------------------------------------------------------------------------------|
------------------------------------------------------------------------------|
------------------------------------------------------------------------------|
------------------------------------------------------------------------------|

Vers1

Em           C             G          G/F#               Em        C
Syvsover'n springer hører skoleklokka ringer og tenker på alle de som aldri
Em
kommer
D
forsent
   Em              C               G                 G/F#            Em
Da han var ung og søt med ransel i firsprang gjennom kirkeparken og prøvde
        C          Em     D
å finne ut hva han skulle si.


Refr:
  C                         G  C                  G      G/F#
Gleder seg til timen er forbi. Et skolebrød i storefri.


Mellomspill:

Em           C   A  D
-3-----2----------------------------------------------------------------------|
---0---0-3/--5---2--3---------------------------------------------------------|
-----0--------------2---------------------------------------------------------|
-2------------------0---------------------------------------------------------|
---------2/--3---0------------------------------------------------------------|
------------------------------------------------------------------------------|

Vers2

   Em              C             G        G/F#                Em      C
Sersjant gymlærer psyko Hansen gjenomskua slinger i valsen med strafferunder
   Em D
og 50 armhev.

Refr.


Under Solo, spill Intro en gang og så:

Em-C-G Em-C-G-A-D

Vers3

 Em           C           G                  G/F#          Em          C
Lengst bak på vindusrekka lå han i skjul bak skoleboka med tavleskrekk fordi
    Em          D
han ikke hadde lest.
    Em                C                G           G/F#               Em        C
Men Britt var søt hun sa ikke stort og gikk heller aldri på do midt i timen
      Em     D
for å slippe unna.

Stikk:

Am                         G                  D
Hva kan han gjøre for å få          oppmerksomhet

Refr.

(NB. Siste refreng blir spilt i 34 takt, hør på sangen for å få det riktig)

Outro:

Em           C    G
-3-----2------------|
---0---0-3--5p0--0--|
-----0------------0-|
-2----------------0-|
---------2--3-------|
------------------3-|
Добавлено: 30.07.2012
Другие материалы по этой песне:
  • Аккорды и текст

Страница создана 30.07.2012
http://primanota.ru/cc-cowboys/et-skolebrod-i-storefri-chords.htm
Привет, Гость.
Предлагаем пройти революционный курс по гитаре.
Подарок от PrimaNota.Ru, забирай!