PrimaNota.ru - самый крупный в мире бесплатный архив песенных текстов, аккордов, табулатур и нот


Cayucas - Moony Eyed Walrus - аккорды и текст, видео

Регистрация Запомнить меня
Войти через:  Facebook Google Twitter Vk Yandex Mail.ru

Cayucas - Moony Eyed Walrus - аккорды и текст, видео

Печатать
Просмотров: 78
Moony Eyed Walrus
Cayucas
Intro 

e|-----------------------------|----------------------------------------------|
B|-----0-----0-----------------|----------------------------------------------|
G|--0-----0----------2-----2---|----------------------------------------------|
D|----------------3-----3------|-------2-----2--------------------------------|
A|-----------------------------|----3-----3---------2-----2-------------------|
E|-----------------------------|-----------------3-----3----------------------|


[Verse Riff]

e|--------------------------------------|-------------------------------------|
B|--------------------------------------|-------------------------------------|
G|--------------------------------------|-------------------------------------|
D|-----------10--9--7-------------------|------------10--9--7-----------------|
A|---7--7---------------10--8--7--------|----7--7--------------10--8--7-------|
E|---8--8---------------------------10--|----8--8-------------------------10--|


e|--------------------------------------|-------------------------------------|
B|--------------------------------------|-------------------------------------|
G|--------------------------------------|-------------------------------------|
D|-----------10--9--7-------------------|-------------------------------------|
A|---7--7---------------10--8--7--------|----2--2----3--2--0------------------|
E|---8--8---------------------------10--|----3--3--------------3--0--2-h3-----|

C
Cosmonaut, the ruined lighthouse
A lantern lit
      G
Goodbye, moony eyed walrus
C
Large, fanged teeth
He talked about the sea
                                  G
'Neath the willowy marsh, it was you and I

[Pre-Chorus]
C            Am
Off into the hills
F                               G
I'm amongst the branches of the trees
        C                  Am
Casting shadows on those below
F                               G
Dark and dingy, gloomy shade of green   OOOH

[Chorus]
F
From the edge of the cliffs above the trees
C
I believe, I believe, I believe, oh
F
See the bottom of a murky sea, you see
G
Deeper and deeper
F
Up the planks of the ladder, one by one
C
I wanna see, I wanna see, I wanna see, oh
F
Where the dreams you dreamt get 
G
bigger and bigger

[Verse 2]
C
Swords, ice plant-like
                        G
The back of a stegosaurus
C
And your arms are tired
Sand dunes are spiking up
                        G
The brights are brighter
The heights are so much higher

[Verse 3]
            C                     G
Drippy eyed 'coon looking oddly ferocious
              F                           G
His giant eyes are bulging from his head
           C                       G
The batwing cave and a poisonous face
                    F                               G
Stuck in the darkness, we'll try not to wind up dead

[Pre-Chorus]
C            Am
Off into the hills
F                               G
I'm amongst the branches of the trees
        C                  Am
Casting shadows on those below
F                               G
Dark and dingy, gloomy shade of green

[Chorus]
F
From the edge of the cliffs above the trees
C
I believe, I believe, I believe, oh
F
See the bottom of a murky sea, you see
G
Deeper and deeper
F
Up the planks of the ladder, one by one
C
I wanna see, I wanna see, I wanna see, oh
F
Where the dreams you dreamt get 
G
bigger and bigger

[Keyboard solo] (The guitar doesn't really play in this part)
F  C  Am  G
F  C  Am  G  G  G

[Guitar solo] (Similar to the verse)
C C C G
C C C G

[Pre-Chorus]
C            Am
Off into the hills
F                               G
I'm amongst the branches of the trees
        C                  Am
Casting shadows on those below
F                               G
Dark and dingy, gloomy shade of green

[Chorus]
F
From the edge of the cliffs above the trees
C
I believe, I believe, I believe, oh
F
See the bottom of a murky sea, you see
G
Deeper and deeper
F
Up the planks of the ladder, one by one
C
I wanna see, I wanna see, I wanna see, oh
F
Where the dreams you dreamt get 
G
bigger and bigger

[Chorus]
F
From the edge of the cliffs above the trees
C
I believe, I believe, I believe, oh
F
See the bottom of a murky sea, you see
G
Deeper and deeper
F
Up the planks of the ladder, one by one
C
I wanna see, I wanna see, I wanna see, oh
F
Where the dreams you dreamt get 
G
bigger and bigger

Outro

C  C  C

Добавлено: 13.06.2016
Другие материалы по этой песне:
  • Аккорды и текст

Страница создана 13.06.2016
http://primanota.ru/cayucas/moony-eyed-walrus-chords.htm
Привет, Гость.
Предлагаем пройти революционный курс по гитаре.
Подарок от PrimaNota.Ru, забирай!