PrimaNota.ru - самый крупный в мире бесплатный архив песенных текстов, аккордов, табулатур и нот


Cayetana - Dirty Laundry - таба, видео

Регистрация Запомнить меня
Войти через:  Facebook Google Twitter Vk Yandex Mail.ru

Cayetana - Dirty Laundry - таба, видео

Печатать
Просмотров: 66
Уроки эстрадного вокала в Санкт-Петербурге
Авторы: Cayetana

-------------------------------------------------------------------------------
                             Dirty Laundry - Cayetana
-------------------------------------------------------------------------------
Tabbed by: Corey R.

This is a really simple song. It is off their debut album titled "Nervous Like Me". 

Tuning:Standard

Verse/Chorus (pretty much the entire song) Just listen to the song for the exact timing.
e|---------------------------------------------------------------------------|
B|---------------------------------------------------------------------------|
G|------11---13---9----------------------------------------------------------|
D|-9----11---13---9----------------------------------------------------------|
A|-9----9----11---7----------------------------------------------------------|
E|-7-------------------------------------------------------------------------|


Bridge (from about 1:15-1:28 in the song) Once again, listen for exact timing.
e|---------------------------------------------------------------------------|
B|----9----------------------------------------------------------------------|
G|-8--9--8--8----------------------------------------------------------------|
D|-9--9--9--9----------------------------------------------------------------| x2
A|-9--7--9--9----------------------------------------------------------------|
E|-7-----7--7----------------------------------------------------------------|


That's it. Like I said, really simple song to play. 

Link to song: https://www.youtube.com/watch?v=z0DKtKTQaL0
Добавлено: 18.07.2015
Вам также может быть интересно:
Другие материалы по этой песне:
  • Аккорды и текст

Страница создана 18.07.2015
http://primanota.ru/cayetana/dirty-laundry-chords.htm
Привет, Гость.
Предлагаем пройти революционный курс по гитаре.
Подарок от PrimaNota.Ru, забирай!