PrimaNota.ru - самый крупный в мире бесплатный архив песенных текстов, аккордов, табулатур и нот


Caverne - Sermeot Ar Huelgoat - таба, видео

Регистрация Запомнить меня
Войти через:  Facebook Google Twitter Vk Yandex Mail.ru

Caverne - Sermeot Ar Huelgoat - таба, видео

Печатать
Просмотров: 18
-------------------------------------------------------------------------------
                      SERMEOT AR HUELGOAT - Caverne
-------------------------------------------------------------------------------
Tabbed by: Vazelyne
E-mail: babaoroumqsd@gmail.com

Tuning: This song is played at ~1,5 semi tones below standard tuning (I measured 1,46 semi tones in Audacity,
but let's round it up).

e|-------------------------------------------------------------------|
B|-------------------------------------------------------------------|
G|-----------------------------------------------------------------x2|
D|---2-----2---------2-----2---------2-----2---------2-----2---------|
A|-----2-----2---2-----2-----2---2-----2-----2---2-----2-----2---3---|
E|-0-----0-----3---0-----0-----3---0-----0-----3---0-----0-----3-----|

e|-------------|
B|-------------|
G|-----------x4|
D|-------------|
A|-2-2-2-2-3---|
E|-0-0-0-0-3---|

e|-------------------------------------------|
B|-------------------------------------------|
G|-----------------------------------------x2|
D|-------------------------------------------|
A|-2-2-2-2-3-2-2-2-2-3-2-2-2-2-3-2-2-3-3-3---|
E|-0-0-0-0-3-0-0-0-0-3-0-0-0-0-3-0-0-3-3-3---|

e|-------------------------------------------|
B|-------------------------------------------|
G|-----------------------------------------x2|
D|-2-2-2-2-2-2-2-2-2-2-2-2-2-2-2-2-2-2-2-2---|
A|-2-2-2-2-3-2-2-2-2-3-2-2-2-2-3-2-2-3-3-3---|
E|-0-0-0-0-3-0-0-0-0-3-0-0-0-0-3-0-0-3-3-3---|

e|-------------------------------------------|
B|-------------------------------------------|
G|-0-0-0-0-0-0-0-0-0-0-0-0-0-0-0-0-0-0-0-0-x2|
D|-2-2-2-2-2-2-2-2-2-2-2-2-2-2-2-2-2-2-2-2---|
A|-2-2-2-2-3-2-2-2-2-3-2-2-2-2-3-2-2-3-3-3---|
E|-0-0-0-0-3-0-0-0-0-3-0-0-0-0-3-0-0-3-3-3---|

e|--|
B|--|
G|--|
D|-2|
A|-2|
E|-0|

************************************

| /   slide up
| \   slide down
| h   hammer-on
| p   pull-off
| ~   vibrato
| +   harmonic
| x   Mute note
| b   Bend
| pb  Pre-bend
| br  Bend release
| pbr Pre-bend release
| brb Bend release bend

************************************
Добавлено: 29.12.2015
Другие материалы по этой песне:
  • Аккорды и текст

Страница создана 29.12.2015
http://primanota.ru/caverne/sermeot-ar-huelgoat-chords.htm
Привет, Гость.
Предлагаем пройти революционный курс по гитаре.
Подарок от PrimaNota.Ru, забирай!