PrimaNota.ru - самый крупный в мире бесплатный архив песенных текстов, аккордов, табулатур и нот


Caveman - My Room - таба, видео

Регистрация Запомнить меня
Войти через:  Facebook Google Twitter Vk Yandex Mail.ru

Caveman - My Room - таба, видео

Печатать
Просмотров: 134
Уроки эстрадного вокала в Санкт-Петербурге
Caveman - WEBSITE: http://cavemantheband.com/
My Room

Tuning: Standard
Capo 5th fret

Since a lot of the sections of the song are identical, I listed them as riffs and in the 
lyrics section placed the riff number above the corresponding lyrics.


Tabbed by: Le Chacal


VERSE:          riff1                         riff2
e|-------------------|------------------------------|----------|
B|-------------------|------------------------------|----------|
G|-------------------|x3----------------------------|x2--------|
D|-------------------|-------------0----------------|----------|
A|---------3----3----|-----0---2-----2-------3---3--|----------|
E|-0--3--5----5----5-|---0---3---3-----3---5---5----|----------|
         Hey....         No  more...


                 riff3
e|-------------------------------------------------------------|
B|------00---0----00-------0-----------------------------------|
G|------00---0----00---------0---------------------------------|
D|---------0---------0---------0-------------------------------|
A|---------------------------------------3---3-----------------|
E|---0-0-----3-3-------3-3-------3-3---5---5-------------------|
  ...people              to come to my room...

LYRICS


VERSE:
1   1         1                 1
Hey Lorraine, think of what you want
2      2
No more
1     1       1              1
I got time to read up on the lies
2        2
Some more


CHORUS:
1                  2
Cause since you're around me
1       2
I don't like children
1       3
I don't like people to come to my room
1           2
and I don't like silence
1       2
I don't like people
1              3
who need their own lives to come become between ours


The rest of the song is a variation of riffs 1 and 2
Добавлено: 30.11.2013
Другие материалы по этой песне:
  • Аккорды и текст

Страница создана 30.11.2013
http://primanota.ru/caveman/my-room-chords.htm
Привет, Гость.
Предлагаем пройти революционный курс по гитаре.
Подарок от PrimaNota.Ru, забирай!