PrimaNota.ru - самый крупный в мире бесплатный архив песенных текстов, аккордов, табулатур и нот


Cave Story - Torokos Theme - таба, видео

Регистрация Запомнить меня
Войти через:  Facebook Google Twitter Vk Yandex Mail.ru

Cave Story - Torokos Theme - таба, видео

Печатать
Просмотров: 44
Toroko's Theme -- Daisuke Amaya
https://www.youtube.com/watch?v=S2tAindOZuc

Feels like a 4/4 swing.
I recommend listening to get the rhythm absolutely perfect.

Tabbed in D major, original is in A flat Major / G sharp Major.

Standard tuning: E A D G B e

For bass I found just playing the root note of the chord on the offbeat and walking--
to the next note sounds great.

Chords are:

Verse.

Dmaj (I)  |  Amaj (V) |  Gmaj (IV)   |

Bmin (vi) |  Bmin/A   |   Bmin-Amaj  |

  Gmaj    |    Amaj   |     Dmaj     |, then repeat.

Chorus.

 Emin(ii) | Dmaj | Emin | Amaj/sus2 |
 
I've been having some trouble transposing the solo chords

The outro is just Dmaj and Gmaj. 

Lead part.

e|------------------------------------------|
B|---5-6-7~--5-8-7~--7-5-------5~-----------|
G|-7---------------------7~--7-----6--6-7~--|
D|------------------------------------------|
A|------------------------------------------|
E|------------------------------------------|

Add slides and other accents once you get it down.

Chorus, the rhythm to this is tricky.

e|------7--7---------------------------------|
B|-7-10------10--7-10----------7--7----------|
G|------------------------7-9---------7-7~---|
D|----------------------------------9--------|
A|-------------------------------------------|
E|-------------------------------------------|

e|------7--7------------------------------------|
B|-7-10------10--7-10----------7--7-7---7h8-7~--|
G|------------------------7-9-------------------|
D|----------------------------------------------|
A|----------------------------------------------|
E|----------------------------------------------|

Solo.

e|-------7------------------------6-----7-5-------------------|
B|--8--8-----10--8-10--8-7~----7-----7------8--7-7-7----------|
G|------------------------------------------------------7-7~--|
D|---------------------------------------------------9--------|
A|------------------------------------------------------------|
E|------------------------------------------------------------|

Outro.

e|----------------------------------|
B|---------------7-7----------------|
G|---7-7~----7-9------7-7~----7-7~--|
D|-9----------------9-------9-------|
A|----------------------------------|
E|----------------------------------|

If you find any mistakes or things you can improve on, let me know. Cheers.
Добавлено: 30.12.2015
Другие материалы по этой песне:
  • Аккорды и текст

Страница создана 30.12.2015
http://primanota.ru/cave-story/torokos-theme-chords.htm
Привет, Гость.
Предлагаем пройти революционный курс по гитаре.
Подарок от PrimaNota.Ru, забирай!