PrimaNota.ru - самый крупный в мире бесплатный архив песенных текстов, аккордов, табулатур и нот


Cave In - Segue 1 - таба, видео

Регистрация Запомнить меня
Войти через:  Facebook Google Twitter Vk Yandex Mail.ru

Cave In - Segue 1 - таба, видео

Печатать
Просмотров: 28
Авторы музыки: Stephen Brodsky

eb|---------------------------------------|
Bb|---------------------------------------|
Gb|-------0-----------------------0-------|
Db|-----5---2h4----2-2h4------2h4---------|
Ab|---5---------0--------0-----------0--0-|
Eb|-3----------------------3--------------|

eb|-------------------------------------------------------------|
Bb|-------------------------------------------------------------|
Gb|-----------0--------------------------0----------------0-----|
Db|---2h4-------4p0--------2-2h4-----2h4----------2h4-------4p0-|
Ab|-------0---------0--0-0-------0---------0--0-------0---------|
Eb|-3-------3----------------------3------------3-------3-------|

Played throughout. Then this riff comes in towards the end...

eb|-9h10p9-14-12-10-9-------------|
Bb|--------------------12-14-10---|
Gb|-------------------------------|
Db|-------------------------------|
Ab|-------------------------------|
Eb|-------------------------------|
Добавлено: 13.11.2015
Другие материалы по этой песне:
  • Аккорды и текст

Страница создана 13.11.2015
http://primanota.ru/cave-in/segue-1-chords.htm
Привет, Гость.
Предлагаем пройти революционный курс по гитаре.
Подарок от PrimaNota.Ru, забирай!