PrimaNota.ru - самый крупный в мире бесплатный архив песенных текстов, аккордов, табулатур и нот


Cavalera Conspiracy - Ultra-violent - таба, видео

Регистрация Запомнить меня
Войти через:  Facebook Google Twitter Vk Yandex Mail.ru

Cavalera Conspiracy - Ultra-violent - таба, видео

Печатать
Просмотров: 159
cavalera conspiracy  -  Ultra-violent
Tab: Olmuzka
Tuning: Drop B

No solo...

    / = slide


intro:
 /
|--------|
|--------|
|--------|
|--------|
|--------|
|1/8-----|


Main riff:

|-----------------------------|---------------------------|
|-----------------------------|---------------------------|
|-----------------------------|---------------------------|     4x
|-8-7-------------------------|-8-7-----------------------|  
|-8-7-000-111-333-222-000-111-|-8-7---000-111-000-3-2-0-1-|
|-8-7-000-111-333-222-000-111-|-8-7---000-111-000-3-2-0-1-|


then this:

Guitar 1:
|----------------------------------|
|----------------------------------|
|----------------------------------|  8x
|----------------------------------|
|-------3333333333333333-----------|
|-33333------------------3333-2222-|

Guitar 2:
|----------------------------------|
|----------------------------------|
|----------------------------------|  8x
|-------2222222222222222------2222-|
|----------------------------------|
|-33333------------------3333------|


Main riff:

|-----------------------------|--------------------------|
|-----------------------------|--------------------------|
|-----------------------------|--------------------------|     4x
|-8-7-------------------------|-8-7----------------------|  
|-8-7-000-111-333-222-000-111-|-8-7--000-111-000-3-2-0-1-|
|-8-7-000-111-333-222-000-111-|-8-7--000-111-000-3-2-0-1-|


then this again:

Guitar 1:
|----------------------------------|
|----------------------------------|
|----------------------------------|  8x
|----------------------------------|
|-------3333333333333333-----------|
|-33333------------------3333-2222-|

Guitar 2:
|----------------------------------|
|----------------------------------|
|----------------------------------|  8x
|-------2222222222222222------2222-|
|----------------------------------|
|-33333------------------3333------|


And Then comes break:

|-------------------|----------------|
|-------------------|----------------|
|-------------------|----------------|
|-------------------|----------------|
|-------------------|----------------|
|-3333-4-444444-5555|-3333-4-444444-5|


then comes solo:

|-------------------|
|-------------------|
|-------------------|   8x     
|-------------------|     
|-3333-4-444444-5555|
|-3333-4-444444-5555|


And then:

|----------|----------|----------------------|
|----------|----------|----------------------|
|----------|----------|----------------------|  4x
|------6-9-|------6-9-|------6-9-9-6-9-9-6-9-|
|-3333-6-9-|-3333-6-9-|-3333-6-9-9-6-9-9-6-9-|
|-3333-6-9-|-3333-6-9-|-3333-6-9-9-6-9-9-6-9-|


then comes solo again:

|-------------------|
|-------------------|
|-------------------|   8x     
|-------------------|     
|-3333-4-444444-5555|
|-3333-4-444444-5555|


And then again:

|----------|----------|----------------------|
|----------|----------|----------------------|
|----------|----------|----------------------|  4x
|------6-9-|------6-9-|------6-9-9-6-9-9-6-9-|
|-3333-6-9-|-3333-6-9-|-3333-6-9-9-6-9-9-6-9-|
|-3333-6-9-|-3333-6-9-|-3333-6-9-9-6-9-9-6-9-|


And then:

|----------|----------|----------|----------|
|-----(5)--|----------|-----(5)--|----------|
|-------(7)|----------|-------(7)|----------|
|-9999-----|-9999-----|-9999-----|-9999-----|
|-7777-6-5-|-7777-6-5-|-7777-6-5-|-7777-6-5-|
|------6-5-|------6-5-|------6-5-|------6-5-|

|-------|-------|-------|-------|
|--(6)--|-------|--(6)--|-------|
|----(7)|-------|----(7)|-------|
|-------|-------|-------|-------|
|-8-7-4-|-8-7-4-|-8-7-4-|-8-7-4-|
|-8-7-4-|-8-7-4-|-8-7-4-|-8-7-4-|

|----------|----------|----------|----------|
|-----(5)--|----------|-----(5)--|----------|
|-------(7)|----------|-------(7)|----------|
|-9999-----|-9999-----|-9999-----|-9999-----|
|-7777-6-5-|-7777-6-5-|-7777-6-5-|-7777-6-5-|
|------6-5-|------6-5-|------6-5-|------6-5-|


|-------|-------|-------|-------|
|--(6)--|-------|--(6)--|-------|
|----(7)|-------|----(7)|-------|
|-------|-------|-------|-------|
|-8-7-4-|-8-7-4-|-8-7-4-|-8-7-4-|
|-8-7-4-|-8-7-4-|-8-7-4-|-8-7-4-|


And then:
|-----------------|
|-----------------|
|-----------------|  2x
|-----------------|
|3--(3)---3-2-0-1-|
|3--(3)---3-2-0-1-|

And then comes end:
|----------------------------|--------------------------|
|----------------------------|--------------------------|
|----------------------------|--------------------------|
|-8-7------------------------|-8-7----------------------|
|-8-7-000-111-333-222-000-111|-8-7---000-111-000-3-2-0-1|
|-8-7-000-111-333-222-000-111|-8-7---000-111-000-3-2-0-1|

|----------------------------|--------------------------|
|----------------------------|--------------------------|
|----------------------------|--------------------------|
|-8-7------------------------|-8-7----------------------|
|-8-7-000-111-333-222-000-111|-8-7---000-111-000-3-2-0-1|
|-8-7-000-111-333-222-000-111|-8-7---000-111-000-3-2-0-1|

|----------------------------|--------------------------|
|----------------------------|--------------------------|
|----------------------------|--------------------------|
|-8-7------------------------|-8-7----------------------|
|-8-7-000-111-333-222-000-111|-8-7---000-111-000-3-2-0-1|
|-8-7-000-111-333-222-000-111|-8-7---000-111-000-3-2-0-1|

|----------------------------|--------------------------|-----|
|----------------------------|--------------------------|-----|
|----------------------------|--------------------------|-----|
|-8-7------------------------|-8-7----------------------|-8-7-|
|-8-7-000-111-333-222-000-111|-8-7---000-111-000-3-2-0-1|-8-7-|
|-8-7-000-111-333-222-000-111|-8-7---000-111-000-3-2-0-1|-8-7-|


The End! 

Enjoy!!!!
Добавлено: 15.03.2012
Другие материалы по этой песне:
  • Аккорды и текст

Страница создана 15.03.2012
http://primanota.ru/cavalera-conspiracy/ultra-violent-chords.htm
Привет, Гость.
Предлагаем пройти революционный курс по гитаре.
Подарок от PrimaNota.Ru, забирай!