PrimaNota.ru - самый крупный в мире бесплатный архив песенных текстов, аккордов, табулатур и нот


Cavalera Conspiracy - Pandemonium - таба, видео

Регистрация Запомнить меня
Войти через:  Facebook Google Twitter Vk Yandex Mail.ru

Cavalera Conspiracy - Pandemonium - таба, видео

Печатать
Просмотров: 30
---------------------------------------------------------------------------
                        Pandemonium - Cavalera Conspiracy
                        All Lead Breaks from Entire Album
---------------------------------------------------------------------------



Tuning: Standard E Tuning used for easy navigation: E-A-D-G-B-e



To save space, I have only included the strings that the leads are played on.
I have not included all the Measure Lines, as I usually do with my TABs.
I couldn't be bothered... and it would have made this TAB a mile long(er).


Key:    Slide:                  /or\  (with "sl")
        Whammy Bar              /\/\/ (sometimes with "wh")
        Rapid Picking           ||||
        Big Vibrato             ~~~
        Hammer on               h
        Pull Off                p
        BR                      Bend/Release
        br                      quicker Bend/Release





READ AGAIN: ONLY THE STRINGS THAT ARE PLAYED HAVE BEEN INCLUDED IN THIS TAB!!!



TRACK 4: I, Barbarian: 
    2:46
e||-12-----------14----------15-----------17--------|-
B||-15-B-(17)----17-B-(19)---18--B-(20)---20-B-(22)-|-

e|-19-20-22--20h22p20p19----------19-------|-
B|------------------------22B(24)----22-20-|-
G|-----------------------------------------|-

e|---------------------------------------------sl-------|-
B|-19-20-22--20h22p20p19-----19-20-24--20h24p20\19----19|-
G|------------------------21-----------------------21---|-

e|-------------------------------------------|-
B|-------------------------------------------|-
G|-21B(23)R(21)-19----19-21--21-B(23)-R-(21)-|-
D|-----------------21------------------------|-

e|------|--------------------------|sl--------------------------19-17-19-|-
B|------|-----------------17h19p17-|/19-20p19----19----19-20-22----------|-
G|------|-16h17p16h17-h19----------|----------21----21-------------------|-
D|---17-|--------------------------|-------------------------------------|-
A|-19---|--------------------------|-------------------------------------|-

e|-20p19p17\15--19p17p15\14--15-/-(x)-\---------|-
B|---------sl-----------sl------sl----sl-12--12-|-
G|----------------------------------------------|-

e|-------------------------------------------------------------|-
B|-12-12h13p12----12-13-15-13h15p13p12----12/13-16-13h16p13\12-|-
G|-------------14----------------------14---sl-------------sl--|-

e|---------------------------------14-------------14---15---14---13---14-||
B|---------------------------------12-------------12-x-13-x-12-x-11-x-12-||
G|-14-14(b16r)p12---12-12-------------x---------x----x----x----x----x----||
D|---------------14-------14-12-14----x--14-14--x------------------------||



|---------------------------------------------------------------------------------------------------|



TRACK 5: Cramunhão: Lead 1.
    0:10
e||-12h15---12h14---12h17---12h15---12h19---12h17---12h20---12h19--|-
B||(Trill)-(Trill)-(Trill)-(Trill)-(Trill)-(Trill)-(Trill)-(Trill)-|-

e|--------------------------------------------------------------------------------|-
B|------------------------------------------------------------------------17-h-19-|-
G|---------------------------------------------14h16h17----------16h17h19---------|-
D|-------------------14-h-16----------14h16h17----------16h17h19------------------|-
A|----------14h15h17---------14h15h17---------------------------------------------|-
E|-14h15h17-----------------------------------------------------------------------|-

e|-------------------17--19--20--19h20p19--17------17--19--19-~~~~|-
B|----------17h19h20---------------------------20-----------------|-
G|-16h17h19-------------------------------------------------------|-

e|(19)-19h20p19\17)-(19)-(19h22p19\17)-(19)-(17h19p17)----------------------------||-
B|-19--19h20p19\17---19---19h22p19\17---19---17h19p17--15-17-15-13-12-13-12-10-12-||-
G|-------------sl-----------------sl----------------------------------------------||-



Track 5 continued. Cramunhão: Lead 2.
    2:42                                       end 1.    end 2.
e|-/19-------17-19--17h19p17--------------------sl--|~ -|-/20-||-
B|-/17--20---15-17--15h17p15-20-19-20-19-17-----/17-|~ -|-/18-||-
G|-sl---17-------------------17-16-17-16-14-19--/14-|~ -|-sl--||-
D|------------------------------------------17------|~ -|-----||-



Track 5 continued. Cramunhão: Lead 3.
          3:39
Gtr 1. e|-19p12p19--h12-17p12p19--h12-19p12p9--h12-|x3 -|--
Gtr 2. e|-15p12p7---h12-14p12p7---h12-17p12p7--h12-|x3 -|--

Gtr 1. e|-19p12h19--p12--h17p12h19--12h20p12h19-||-
Gtr 2. e|-19p12h19--p12--h17p12h19--12h20p12h19-||-

e|-----------------------------------------------||
B|-17-h-20-p-17-p-0------------------------------||
G|-------------------16-h-19-p-16-p-0------------||
D|------------------------------------14-/15-\14-||
A|------------------------------------14-/15-\14-||
E|---------------------------------------sl--sl--||



|---------------------------------------------------------------------------------------------------|



TRACK 6: Apex Predator: Intro.
   0:00
e|-24p17h20----------------------------------------|-
B|----------24p17h20----------24p17h20-------------|-
G|-------------------24p17h20----------24p17h20p17-|-

   Tap high notes (23 & 24 frets) with Right Hand

e|-23p16h19----------------------------------------||-
B|----------23p16h19----------23p16h19-------------||-
G|-------------------23p16h19----------23p16h19p16-||-



Track 6. continued. Apex Predator: Lead 1. (Left Speaker only)
   1:45
e|-16h17p16--17p16p14h16--h17p16p14h16h17p16--h17p16p14h16-|-

(The whole time Tapping at the 20th fret with R Hand using edge of pick)

e|-17-16--17-16--17-16--17p16p14--16-14--16p14p13--14-13-14/17\14-13-|-
B|---------------------------------------------------------sl-sl-----|-

  (Right Hand Tapping Ends)
e|-15p14p13-14p13--------------------------------------------------|-
B|----------------15p14-15p14--------------------------------------|-
G|----------------------------16--p14p13--13h14p13-----------------|-
D|------------------------------------------------16--14p13--14p13-|-

e|-----------------------------------------14-16--17p16p14h16--14-|-
B|------------------------14--15p14--15h17------------------------|-
G|-------13--14p13--14h16-----------------------------------------|-
D|-14h16----------------------------------------------------------|-

e|-16--17p16h17p16p17-h20p17p16h17h20/21p20p17\16h17h20--17p16--17h20-|-
B|-----------------------------------sl-------sl----------------------|-

e|-17p16\14--16--14--p13----------------------------------------------|-
B|------sl---------------15p14--15p14p12------------------------------|-
G|---------------------------------------14p13--16p13--14p13----------|-
D|-----------------------------------------------------------16p14p13-|-

e|-----------------------------------------14-16--17p16--14-16p14-|-
B|------------------------14--15p14--15h17------------------------|-
G|-------13--14p13--14h16-----------------------------------------|-
D|-14h16----------------------------------------------------------|-

e|-13-14p13--14-16p14p13--14p13-14--16p14p13-14p13-------||
B|-------------------------------------------------15p14-||
  
  Sorry Couldn't be bothered including Harmony for 2nd Guitar (Right Speaker)
  It's pretty much based on the same as the Left Speaker.



|---------------------------------------------------------------------------------------------------|



TRACK 7: Insurrection: Lead 1.
   0:05
e|----------------------------------------------------------------------|-
B|-24-24-22-21-21-22-24-24-22-21---------sl-----------------------------|-
G|-------------------------------23-21-19\18-19-18-19-21-19-18----------|-
D|-------------------------------------------------------------21-19-18-|-

B|------------------------------------------------------------------19-21-|-
G|---------------------------------------16-18-19----------18-19-21-------|-
D|-19-18-16----16-18-19-18-16---16-18-19----------18-19-21----------------|-
A|----------19----------------x-------------------------------------------|-

e|--------------------------------------------|-
B|------sl-----21-22-23------------23-24-*25*-|-
G|-21-19/21-23----------23-21-23-x------------|-

e|-------------21-22--21-22-21-------------21--24--24-(B-R-B-R)-|-
B|----21-24--------------------24--22--24-----------------------|-
G|-23-------23--------------------------------------------------|-

e|-22--24--22--21--22p21-----------------sl-|-
B|-----------------------24--24(B-R-B-R)-\--|-

B|-(14h17p14/\/\/)*-===>>-*(19h22p19/\/\/)-wh-----wh---wh-wh-------wh-------||-
G|----------wh----------------------wh-----0\-----/[4]-/--/\/\/\/--\---(x)--||-
  **Rapid H'On & P'Off's starting at (14 and 17)th frets,
  using plenty of Whammy bar (ie:/\/\/), 
  while chromatically ascending to the (19 and 22)nd frets, 
  Followed by open G dive depressing whammy to slack,
  Then catching the [harmonic] at the 4th fret G string 
  (Harmonic at 4th fret G, same note as 19th fret on thin e string)
  Then shake the shit out of the Harmonic using whammy, 
  while slowly depressing the harmonic to slack.
  (but hey you didn't really need me to tell you that? surely!) lol



Track 7 continued. Insurrection: Lead 2.
   1:59
e|-------10-15-10----10----|-------------------------|-
B|-10-15----------15----15-|-10-15-10----10----------|-
G|-------------------------|----------15----15-10-15-|-

G|-10----10---------------------------------------|-
D|----15----15-10-15-10----10---------------------|-
A|----------------------15----15-10----10------sl-|-
E|----------------------------------15----13-10\--|-

e|-------10-15-10----10----|-------------------------|-------------------|-|-
B|-10-15----------15----15-|-10-15-10----10----------|-------------------|-|-
G|-------------------------|----------15----15-10-15-|-14-15-14-10-------|x|-
D|-------------------------|-------------------------|-------------15-10-|4|-

e|-------10-15-10----10----|-------------------------|-
B|-10-15----------15----15-|-10-15-10----10----------|-
G|-------------------------|----------15----15-10-15-|-

G|-10----10---------------------------------------|-
D|----15----15-10-15-10----10---------------------|-
A|----------------------15----15-10----10------sl-|-
E|----------------------------------15----13-10\--|-

D|-------------------------------------15-17-17-15-15-17-17-15-15-17-|-
A|-(x)17-15----------15-17-15----15-17-------------------------------|-
E|----------17-15-17----------17-------------------------------------|-

e|----------------------------------15-17-15----------15-17----------------------|-
B|-------------------17-15-------17----------17-15-17-------15-13-------15-13----|-
G|-17-14-17-14-17-14-------17-14----------------------------------15p14-------15-|-

e|-23-(B-R)--23p22p20-22~~-|------------20-(h)22--20-----------------|-
B|-------------------------|-sl--20h21---------------23-21-20--20~~~-|-
G|-------------------------|-/24-------------------------------------|-

e|-sl--20-22-20-22-23-22--20-------------------------------------|-
B|-/21-----------------------23p20h23-21-20h21p20h21h23-p21-20~~-|-

e|-----------------------------------------------------sl-----------------20-23~~|-
B|---------------sl--------------------------------x-20/21-------20-21-23--------|-
G|-22-20-19-20-19\17----17-19-20-19-17----17-19-20---------19-20-----------------|-
D|-------------------20----------------20----------------------------------------|-

e|p22----22--p20-------------------------------------------------------------------------|-
B|----23---------23--21-23p21p20--21p20-------------sl--------------------------x-20(BR)-|-
G|--------------------------------------22p20p19----\17~~(B-R)-(BR)----17-19-20----------|-
D|-----------------------------------------------22-----------------20-------------------|-

B|-(20)--p18-20-16-20-(20)~~~~~sl-||
G|---------------------19~~~~~~\x-||



|---------------------------------------------------------------------------------------------------|



TRACK 8: Not Losing the Edge: Lead 1.
   2:55
e|-22p17(x4)-21p17(x4)-----------------------------------------|-
B|---------------------22p17(x4)-21p17(x4)---------------------|-
G|-----------------------------------------22p17(x4)-21p17(x4)-|-

G|-12h17p12h16p12h16x-----------------------|-
D|-------------------12h17p12h17x--------wh-|-
A|-------------------------------12h17p12\/-|-

   Harmony Bit (Play Twice).
e|-17--16-14-16-16--14--16-14h16p14p12----12-14-16-14h16p14p12-|-
B|-14--12-10-9--12--10--12-10h12p10p9--18-9--10-12-10h12p10p9--|-
G|-------------------------------------11----------------------|-

e|----12-11----------||-
B|-18-9-----12-14-14-||-
G|-11----11----------||-
D|----------9--11-11-||-



Track 8 continued. Not Losing the Edge: Lead 2.
   3:26
e|-----------------------20-------------sl-----|-
B|-24|||-22-20-22--20-22----22--20h24p20\19----|-
G|------------------------------------------21-|-
    (||| equals rapid picking)
G|-16-(br)-14----------------------------------------------14-------|-
D|------------17-16-14-16-17-16-14----------------14-16-17----17-16-|-
A|---------------------------------17-15-14-15-17-------------------|-

e|---------------------------------19h20h22----------------------|-
B|----------------------sl------------------19h21-------20h22h24-|-
G|-16-17-19-17-16--19-17/-19h21h23----------------19h20----------|-

B|-p20---------------|-
G|-----21------------|-
D|--------21------sl-|-
A|-----------22p19\x-|-

   Slow Part:
B|-12-(B--R)-12-9-10-12-10-10-7-9-7----7----------sl--|-
G|----------------------------------10---10-7-10-7\6~~|-

B|-------------------------------------sl-------sl-9-9h10p9----|-
G|-10|||p(x)h10-13|||p10h13/14|||p13h14/16-16-16\-----------10-|-
   (||| equals rapid picking)
B|-9-10-12-10h12p10p9----9---------||
G|--------------------10---11-10~~-||



|---------------------------------------------------------------------------------------------------|



TRACK 9: Father of Hate: Lead 1.
   0:13
e|-18h21h25p21p18h21h25p21p18-------------------------|-
B|----------------------------21h25p21p18h21h25p21p18-|-

G|-21h25p21p18---------------------------------------------|--
D|-------------21p18h21h25p21p18---------------------------|--
A|-------------------------------21p18h21h25p21p18------sl-|--
E|-------------------------------------------------21-18\x-|--
  finish with note held  at 18th fret, on e string(w/whammy).



Track 9 continued. Father of Hate: Lead 2. (the harmony bit)
   1:37 (Part A).
e|----------------------13-13-13-12h13p12...-12-12-12-10h12p10...-|-
B|-13-13-13-12h13p12...----------------------13-13-13-12h13p12...-|-
G|----------------------14-14-14-13h14p13...----------------------|-
D|-15-15-15-14h15p14...-------------------------------------------|-

e|---------------------------sl-------------sl-|-
B|-13-15-13-15-13h15p13h15p13\12h13-13-13-12\--|-


  (Repeat Part A harmonies).


e|---------------sl-----------------------sl--------------sl----------------|-
B|-15-15h17p15-13/15--15h17p15-13h15p13-12/13-13--13h15p13\12-12-12h13p12\x-|-


  (Repeat Part A harmonies again).


B|-13-15-15-15-13-13h15p13h15p13\12-12-12-12h13p12h13p12-|-
G|------------------------------sl-----------------------|-

B|-13h15-15p13-15p13\-/15p13\-9h10p9-h10p9-----sl-||
G|-----------------sl-sl----sl-------------10p0\x-||
  (uses the whammy bar in pulses, then dives on the open G string)
  (catching the harmonic at 4th fret G string on the way back up).



|---------------------------------------------------------------------------------------------------|



TRACK 10: The Crucible: Lead 1. (w/whammy bar) 
   2:50
B|-11---11-12/14-12/14-12\11---------11-12/14-/15-15-15-15p14p12\11h12p11-------|-
G|---------------------------/16p15---------------------------------------12p11-|-

B|------------------------------------|-/11---12-/14-/15--p14p12--/15p12\11-|-
G|-11---12-/12--p11p10-/12\/12-11-9\x-|-------------------------------------|-

B|-(11)-12h14-/15p14h15--15/18---18p15\14-14h15--/15p14p12h14-|-

e|-/9p7\6h7--/9p7\6h7-/7p6\3h6p0\x-||



|---------------------------------------------------------------------------------------------------|



TRACK 11: Deus Ex Machina (bonus track): Lead 1
   2:11
e|-19---------17p0----15p0----14p0----12p0---10p0---8p0---7---7h8p7----7-------sl-----|-
B|----17p0-15------13------12------10------8------7-----7---7-------10---10-8-7\5-----|-
G|---------------------------------------------------------------------------------9~~|-

G|-9--(9)p7---11--11p9---12--12p11----14--12h14p12p11-12-14-12h14p12p11----11----------9~|-
D|----------9----------9-----------14-----------------------------------14----14-12-14---|-

e|-----------------------------------------------------------------------19-19-17-(x2)-|-
B|---------------------------------------------------------19-19-17-(x2)---------------|-
G|-------------------------------------------19-19-17-(x2)-----------------------------|-
D|-----------------------------19-19-17-(x2)-------------------------------------------|-
A|---------------19-19-17-(x2)---------------------------------------------------------|-
E|-19-19-17-(x1)-----------------------------------------------------------------------|-

e|-20-20-17-(x2)------------------------------------------------------------------|-
B|---------------20-20-17-(x2)-19-19-17-(x1)--------------------------------------|-
G|-------------------------------------------19-19-17-(x1)-------17-21-21-17-(x2)-|-
D|---------------------------------------------------------17h19------------------|-

D|-21-21-17-(x2)\16h17h19p17p16----16\17-19p17h19p17\16---------sl--sl-|-
A|--------------sl--------------19---sl-------------sl--19--p17--/19\x-|-

e|---------------10-(B-R)-sl-||-
B|------------------------8\-||-
G|---------------------------||-
D|-sl--------9---------------||-
A|-/7---10-------------------||-
E|---------------------------||-



Track 11 continued. Deus Ex Machina (bonus track): Lead 2.
   3:02
e|-17-12-17-12-17p12(x3)--18-13-18-13-18p13(x3)-19-14-19-14-19p14(x3)-20-15-20-15-20p15(x3)-|-

e|-21p16|||-21p16|||-22p17|||-22p17|||-23p18|||-23p18|||-24p19|||-24p19|||-22(B~~)-22-22(B~~)\-|-
B|-------------------------------------------------------------------------------------------\-|-
   (||| equals rapid picking)
e|------15|||--16|||--19|||--20|||--22|||--23|||--20-(BR-BR-BR)\-|-
B|-15|||15|||--16|||--19|||--20|||--22|||--23|||---------------\-|-

e|------------------------sl-----18h21p18-------18h21p18-------18h21p18----|-
B|-18h20h23p16h23p16hxp16-/18h20----------20-20----------20-20----------20-|-
                                                                          *(Pinch Harm)
e|----18h20-18------------------------------------------------------------*20-(B---R)\/\/-\x-|-
B|-20----------18h20p18-------18h19p18-h21p18----------------------------------------wh---\x-|-
G|----------------------19-19-----------------19--20p18h19----18--------------------------sl-|-
D|---------------------------------------------------------20----20--------------------------|-
A|------------------------------------------------------------------18--18-------------------|-

e|-/13|||\----/15|||\----/16|||\----/18|||\--x-|-
B|-/13|||\----/15|||\----/16|||\----/18|||\--x-|- 
G|-sl----sl---sl----sl---sl----sl---sl----sl-x-|-
  (||| equals rapid picking)
e|-10||-13-10|||-13-10||--|--11||-14-11|||-14-11||--|--12||-15-12|||-15-12||--|-
  (||| equals rapid picking)
e|-13||-16-13|||-16-13||--|--14||-17-14|||-17-14||--|-
  (||| equals rapid picking)
e|-15||-18-15|||--|--16||-19--16||--|--17||-20-17|||-\x/22/\/\/\/~~\-||
                                                     (/\/ equals whammy bar action).


|---------------------------------------------------------------------------------------------------|


TRACK 12: Porra (bonus track: Lead 1.
   4:18
e|--------------------sl---sl--sl---sl---sl---sl-sl--sl-----------sl---sl----------|-
B|-sl---sl--sl---sl---/14|||\--/15|||\---/17|||\-/18||\-17||--15||/17|||\--sl---sl-|-
G|-/14|||\--/15|||\---/14|||\--/15|||\---/18|||\-/19||\-18||--15||/18|||\--/14|||\-|-

  (note: ||| equals rapid picking)

e|-/17||-\15||-/17||||\-x||-/17||||--/17|||\--|---------------------------|-
B|-/17||-\15||-/17||||\-x||-/16||||--/16|||\--|--16p15h17p13-16p15h17p13--|-
G|-sl---sl-----sl----sl-----sl-------sl---sl--|---------------------------|-

e|--sl-sl-sl-sl--sl-sl---------------||
B|-x/13\--x/13\--x/13\-------wh--wh--||
G|-x/14\--x/14\--x/14\---[*4]/---\-x-||
  [*Harmonic at 4th fret, note struck when slack, raised then depressed again].


|---------------------------------------------------------------------------------------------------|


Добавлено: 23.12.2015
Другие материалы по этой песне:
  • Аккорды и текст

Страница создана 23.12.2015
http://primanota.ru/cavalera-conspiracy/pandemonium-chords.htm
Привет, Гость.
Предлагаем пройти революционный курс по гитаре.
Подарок от PrimaNota.Ru, забирай!