PrimaNota.ru - самый крупный в мире бесплатный архив песенных текстов, аккордов, табулатур и нот


Cavalera Conspiracy - Must Kill - текст песни, таба, видео

Регистрация Запомнить меня
Войти через:  Facebook Google Twitter Vk Yandex Mail.ru

Cavalera Conspiracy - Must Kill - текст песни, таба, видео

Печатать
Просмотров: 275
Авторы: Marc Rizzo, Max Cavalera, Igor Cavalera

Cavalera Conspiracy - Must Kill
Tab: Olmuzka
Tuning: Drop B

No solo...

   (#) = Pinch Harmonic

Main riff:

|-----------------------------------|
|-----------------------------------|
|-----------------------------------|   4x
|-----------------------------------|
|-5-6-3-6-5-(5)-0-0-0-0-0000-0-0-0-0|
|---------------0-0-0-0-0000-0-0-0-0|

Then comes break.. 

And then comes again:

|-----------------------------------|
|-----------------------------------|
|-----------------------------------|   4x
|-----------------------------------|
|-5-6-3-6-5-(5)-0-0-0-0-0000-0-0-0-0|
|---------------0-0-0-0-0000-0-0-0-0|

And then:

|-----------------|
|-----------------|
|-----------------|  8x
|-----------------|
|-5-4-0-5-6-5-0000|
|-5-4-0-5-6-5-0000|

and then again:

|--------||----------------------------------|
|--------||----------------------------------|
|--------||----------------------------------|   8x
|--------||----------------------------------|
|-0-0-0-0||5-6-3-6-5-(5)-0-0-0-0-0000-0-0-0-0|
|-0-0-0-0||--------------0-0-0-0-0000-0-0-0-0|

And then:

|-----------------|
|-----------------|
|-----------------|  8x
|-----------------|
|-5-4-0-5-6-5-0000|
|-5-4-0-5-6-5-0000|

And then:

|----------------|
|----------------|
|----------------|  3x
|----------------|
|-000-000-000-114|
|-000-000-000-114|

|----------------|
|----------------|
|----------------|
|----------------|
|-000-1-3-443-1-3|
|-000-1-3-443-1-3|

|----------------|
|----------------|
|----------------|  3x
|----------------|
|-000-000-000-114|
|-000-000-000-114|

|----------------|
|----------------|
|----------------|
|----------------|
|-000-1-3-443-1-3|
|-000-1-3-443-1-3|

|----------------|
|----------------|
|----------------|  3x
|----------------|
|-000-000-000-114|
|-000-000-000-114|

|----------------|
|----------------|
|----------------|
|----------------|
|-000-1-3-443-1-3|
|-000-1-3-443-1-3|

|----------------|
|----------------|
|----------------|  3x
|----------------|
|-000-000-000-114|
|-000-000-000-114|

|----------------|
|----------------|
|----------------|
|----------------|
|-000-1-3-443-1-3|
|-000-1-3-443-1-3|

And then:

|--------||-----------------------------------|
|--------||-----------------------------------|
|--------||-----------------------------------|   4x
|--------||-----------------------------------|
|-0-0-0-0||-5-6-3-6-5-(5)-0-0-0-0-0000-0-0-0-0|
|-0-0-0-0||---------------0-0-0-0-0000-0-0-0-0|

Then comes break.. 

And then comes again:

|-----------------------------------|
|-----------------------------------|
|-----------------------------------|   4x
|-----------------------------------|
|-5-6-3-6-5-(5)-0-0-0-0-0000-0-0-0-0|
|---------------0-0-0-0-0000-0-0-0-0|

And then:

|-----------------|
|-----------------|
|-----------------|  8x
|-----------------|
|-5-4-0-5-6-5-0000|
|-5-4-0-5-6-5-0000|

And then:

|----------------|
|----------------|
|----------------|  3x
|----------------|
|-000-000-000-114|
|-000-000-000-114|

|----------------|
|----------------|
|----------------|
|----------------|
|-000-1-3-443-1-3|
|-000-1-3-443-1-3|

|----------------|
|----------------|
|----------------|  3x
|----------------|
|-000-000-000-114|
|-000-000-000-114|

|----------------|
|----------------|
|----------------|
|----------------|
|-000-1-3-443-1-3|
|-000-1-3-443-1-3|

|----------------|
|----------------|
|----------------|  3x
|----------------|
|-000-000-000-114|
|-000-000-000-114|

|----------------|
|----------------|
|----------------|
|----------------|
|-000-1-3-443-1-3|
|-000-1-3-443-1-3|

|----------------|
|----------------|
|----------------|  3x
|----------------|
|-000-000-000-114|
|-000-000-000-114|

|----------------|
|----------------|
|----------------|
|----------------|
|-000-1-3-443-1-3|
|-000-1-3-443-1-3|

Then comes solo but i dont know how it goes...

Guitar 2 solo riff:
                                  11x
|-------------------------------------------------------------------------|
|-------------------------------------------------------------------------|
|-------------------------------------------------------------------------|
|------7-7-7-------8-8-8--------------------7-7-7-------6-6-6------4-4-4-4|
|-0-0--5-5-5--0-0--5-5-5--0-0-0-0-0000-0-0--5-5-5--0-0--5-5-5--0-0-5-5-5-5|
|-0-0---------0-0---------0-0-0-0-0000-0-0---------0-0---------0-0--------|
                                 
Then comes end riff:

Guitar 2:

|-----------||-----------------------------------|
|-----------||-----------------------------------|
|-----------||-----------------------------------|
|-----------||-----------------------------------|
|-0--0--0--0||0-1-0--0--0-0-0-0--0--0--0--0--0--0|
|-0--0--0--0||0-1-0--0--0-0-0-0--0--0--0--0--0--0|

And then guitar 1 comes along the guitar 2:

|---------------------------------------------
|15-15-15-15-15-15-15-15-15-15-15-15-14-14-14-
|---------------------------------------------
|12-12-12-12-12-12-12-12-12-12-12-12-11-11-11-
|---------------------------------------------
|---------------------------------------------
                                  |second |last|
                                  | times |time|
|--------------------------------||-------||---|
|-9-9-9-9-9-9-9-9-9-9-9-9-9-9-9-9||-3-3-3-||-9-|
|--------------------------------||-------||---|
|-6-6-6-6-6-6-6-6-6-6-6-6-6-6-6-6||-0-0-0-||-6-|
|--------------------------------||-------||---|
|--------------------------------||-------||---|

End.....

................................................
.|||||||||...|||||||..||||||||||.|||||||||.||||.
.|||||||||..|||||||||.||||||||||.|||||||||.||||.
.|||| ||||..|||||||||....||||....||||......||||.
.|||| ||||..|||||||||....||||....|||||||...||||.
.||||||||||.|||| ||||....||||....|||||||...||||.
.||||||||||.|||| ||||....||||....||||......||||.
.||||  ||||.|||||||||....||||....||||...........
.||||  ||||.|||| ||||....||||....|||||||||.||||.
.||||  ||||.|||| ||||....||||....|||||||||.||||.
      
     R          A         T          E      !

Enjoy!!!
Добавлено: 06.03.2012
Другие материалы по этой песне:

Страница создана 06.03.2012
http://primanota.ru/cavalera-conspiracy/must-kill-chords.htm
Привет, Гость.
Предлагаем пройти революционный курс по гитаре.
Подарок от PrimaNota.Ru, забирай!