PrimaNota.ru - самый крупный в мире бесплатный архив песенных текстов, аккордов, табулатур и нот


Cavalera Conspiracy - Killing Inside - текст песни, бас-таба, видео

Регистрация Запомнить меня
Войти через:  Facebook Google Twitter Vk Yandex Mail.ru

Cavalera Conspiracy - Killing Inside - текст песни, бас-таба, видео

Печатать
Просмотров: 234
Авторы: Marc Rizzo, Max Cavalera, Igor Cavalera

Band: Cavalera Conspiracy
Song: Killing Inside
Album: Blunt Force Trauma (2011)
Bassist: Johny Chow
Tuning: B Tuning

Verse 1

D|---------------------------|
A|---------8-8-8-------8-8-8-| x4
E|---------------------------|
B|-7-6-4-6-------6-6-6-------|

D|------------------------------|
A|---------8-8-8----------8-8-8-| x3
E|------------------------------|
B|-7-6-4-6-------6--6-6-6-------|

D|---------|
A|---------|
E|---------|
B|-7-6-4-6-|

Chorus

D|-----------------------------|
A|-----------------------------|
E|-----------------------------|
B|-7/6\4-6-6-6-6-6-6-7/6\4-6-6-|
 |                                                 x4
D|-----------------------------------------------|
A|-----------------------------------------------|
E|-----------------------------------------------|
B|-7/6\4-6-6-6-6-6-6-7/6\4-6-6-6-6-6-6-6-6-6-6-6-|

Verse 2

D|-------------------------|
A|---------8888-------8888-| x4
E|-------------------------|
B|-7-6-4-6------6-6-6------|

D|----------------------------|
A|---------8888----------8888-| x3
E|----------------------------|
B|-7-6-4-6------6--6-6-6------|

D|---------|
A|---------|
E|---------|
B|-7-6-4-6-|

Chorus

D|-----------------------------|
A|-----------------------------|
E|-----------------------------|
B|-7/6\4-6-6-6-6-6-6-7/6\4-6-6-|
 |                                                 x4
D|-----------------------------------------------|
A|-----------------------------------------------|
E|-----------------------------------------------|
B|-7/6\4-6-6-6-6-6-6-7/6\4-6-6-6-6-6-6-6-6-6-6-6-|

Interlude

D|--------------------------|
A|-------------------9-10-9-| x4
E|-7\-----9\-----10\--------|
B|----0-0----0-0------------|

Verse 3

D|-------------------------------------------------------------------|
A|----------------------------------------------------9-----10-----9-| x4
E|-7-----7-----7---9-----9-----9---10-----10-----10------------------|
B|---0-0---0-0---0---0-0---0-0---0----0-0----0-0----0---0-0----0-0---|

Guitar solo

D|-------------------------------------------------------------------|
A|----------------------------------------------------9-----10-----9-| x3
E|-7-----7-----7---9-----9-----9---10-----10-----10------------------|
B|---0-0---0-0---0---0-0---0-0---0----0-0----0-0----0---0-0----0-0---|

D|------------------------------------------------------------------|
A|----------------------------------------------------9-----7-----5-|
E|-7-----7-----7---9-----9-----9---10-----10-----10-----------------|
B|---0-0---0-0---0---0-0---0-0---0----0-0----0-0----0---0-0---0-0---|

Chorus

D|-----------------------------|
A|-----------------------------|
E|-----------------------------|
B|-7/6\4-6-6-6-6-6-6-7/6\4-6-6-|
 |                                                 x3
D|-----------------------------------------------|
A|-----------------------------------------------|
E|-----------------------------------------------|
B|-7/6\4-6-6-6-6-6-6-7/6\4-6-6-6-6-6-6-6-6-6-6-6-|

D|-------------------------------|
A|-------------------------------|
E|-------------------------------|
B|-7/6\4-6-6-6-6-6-6-7/6\4-6-6-6-|

Legend
------
| / = slide up
| \ = slide down
Добавлено: 09.05.2012
Другие материалы по этой песне:

Страница создана 09.05.2012
http://primanota.ru/cavalera-conspiracy/killing-inside-chords.htm
Привет, Гость.
Предлагаем пройти революционный курс по гитаре.
Подарок от PrimaNota.Ru, забирай!