PrimaNota.ru - самый крупный в мире бесплатный архив песенных текстов, аккордов, табулатур и нот


Cavalera Conspiracy - Inflikted - текст песни, таба, видео

Регистрация Запомнить меня
Войти через:  Facebook Google Twitter Vk Yandex Mail.ru

Cavalera Conspiracy - Inflikted - текст песни, таба, видео

Печатать
Просмотров: 207
Авторы: Marc Rizzo, Max Cavalera, Igor Cavalera

cavalera conspirary - inflikted
tab: Olmuzka
Drop B

Now I have my own whammy and I edited this tab just litle bit.

No solo..


    * = tap
    w = whammy Sgueel

 
Whammy intro:

|-------------------6|
|3-3-5-5-5--6-6-7-7-6|
|2-2-4-4-4--5-5-6-6-3|  4x
|0-0-2-2-2--3-3-4-4--|
|--------------------|
|--------------------|
 |------- w --------|

Then comes:

Whammy guitar:
|------------------------------|
|-3--3--5--5--5---6--6--7--7--8|
|-2--2--4--4--4---5--5--6--6--7|  2x
|-0--0--2--2--2---3--3--4--4--5|
|------------------------------|
|------------------------------|
 |----------- w --------------|

Guitar 2:

|---------------|---------------|
|---------------|---------------|
|---------------|---------------| 4x
|---------------|---------------|
|---------------|---------------|
|-0-0-00-00-0-00|-0-0-00-00-0-00|

And then comes:

|----||-----------------|
|----||-----------------|
|----||-----------------| 16x
|----||-----------------|
|----||-----------------|
|-1*0||-0-0-0-0--3*0-1*0|

Background Whammy:
|----------------|
|----------------|
|----------------| 2x
|-10----9--7-----|
|--8----7--5---2-|
|--------------0-|
 |----- w ----|

Then comes again:

Whammy guitar:
|------------------------------|
|-3--3--5--5--5---6--6--7--7--8|
|-2--2--4--4--4---5--5--6--6--7|  1x
|-0--0--2--2--2---3--3--4--4--5|
|------------------------------|
|------------------------------|
 |------------ w -------------|

Guitar 2:

|---------------|---------------|
|---------------|---------------|
|---------------|---------------| 1x
|---------------|---------------|
|---------------|---------------|
|-0-0-00-00-0-00|-0-0-00-00-0-00|

And then comes:

|----||-----------------|
|----||-----------------|
|----||-----------------| 16x
|----||-----------------|
|----||-----------------|
|-1*0||-0-0-0-0--3*0-1*0|

Background Whammy:
|----------------|
|----------------|
|----------------| 2x
|--10----9--7----|
|---8----7--5---2|
|---------------0|
 |----- w ----|

And then:

|---------------|---------------|
|---------------|---------------|
|---------------|---------------|
|---------------|---------------|
|---------------|---------------|
|-1-1-11-11-1-11|-1-1-11-11-1-11|

And Then:

|-----------------|
|-----------------|
|-----------------|
|-----------------|
|-2----2----2----3|
|-2----2----2----3|

And then:

|-----------------------|
|-----------------------|
|-----------------------|  8x
|-----------------------|
|------5-6-5------------|
|-00000-----00000-3-4-3-|

And Then:

Whammy guitar:
|------------------------------|
|-3--3--5--5--5---6--6--7--7--8|
|-2--2--4--4--4---5--5--6--6--7|  1x
|-0--0--2--2--2---3--3--4--4--5|
|------------------------------|
|------------------------------|
 |------------ w -------------|

Guitar 2:

|---------------|---------------|
|---------------|---------------|
|---------------|---------------| 1x
|---------------|---------------|
|---------------|---------------|
|-0-0-00-00-0-00|-0-0-00-00-0-00|

And then comes:

|----||-----------------|
|----||-----------------|
|----||-----------------| 8x
|----||-----------------|
|----||-----------------|
|-1*0||-0-0-0-0--3*0-1*0|

And Then:

|-----------------|
|-----------------|
|-----------------|
|-----------------|
|-2----2----2----3|
|-2----2----2----3|

And then:

|----------------------|
|----------------------|
|----------------------|  8x
|----------------------|
|------5-6-5-----------|
|-00000-----00000-3-4-3|

And Then comes break:

|---------|
|---------|
|---------|
|---------|
|---------|
|---------|

And then comes solo...

Guitar 2:

|---------------------------------------|
|---------------------------------------|
|---------------------------------------|  4x
|-2-------------------------------------|
|-0111111111111-2-1-2-1-1111111111111111|
|--111111111111-2-1-2-1-1111111111111111|

And then:

|---------------------------|
|---------------------------|
|---------------------------|  4x
|-2-------------------------|
|-0111-111-111-2-111-111-111|
|--111-111-111-2-111-111-111|

And then:

|---------------------------------------|
|---------------------------------------|
|---------------------------------------|  2x
|-2-------------------------------------|
|-0111111111111-2-1-2-1-1111111111111111|
|--111111111111-2-1-2-1-1111111111111111|

And then:

|---------------------------|
|---------------------------|
|---------------------------|  4x
|-2-------------------------|
|-0111-111-111-2-111-111-111|
|--111-111-111-2-111-111-111|

And Then:

Guitar 2:
|--------|
|--------|
|------10|  16x
|--------|
|-0-0--8-|
|-0-0----|

Whammy Guitar:

|---------|
|---------|
|---------|  16x
|------3w-|
|-0-0--3w-|
|-0-0--3w-|
 |-- w --|

And Then End guitar riff:

|---13--13--13--13--12--12--12--12|
|-15--15--15--15--15--15--15--15--|
|---------------------------------|  4x
|---------------------------------|
|---------------------------------|
|---------------------------------|

End..

Rate!!! 

Enjoy!!!
Добавлено: 27.04.2012
Другие материалы по этой песне:

Страница создана 27.04.2012
http://primanota.ru/cavalera-conspiracy/inflikted-chords.htm
Привет, Гость.
Предлагаем пройти революционный курс по гитаре.
Подарок от PrimaNota.Ru, забирай!