PrimaNota.ru - самый крупный в мире бесплатный архив песенных текстов, аккордов, табулатур и нот


Cavalera Conspiracy - Dark Ark - таба, видео

Регистрация Запомнить меня
Войти через:  Facebook Google Twitter Vk Yandex Mail.ru

Cavalera Conspiracy - Dark Ark - таба, видео

Печатать
Просмотров: 149
Уроки эстрадного вокала в Санкт-Петербурге
Tuning A-F-B-E-Ab-Db


Intro
|--------------------------------------------------------------------------|
|--------------------------------------------------------------------------|
|--------------------------------------------------------------------------|
|--------------------------------------------------------------------------|
|--6-6-6-6-6-6-6-6-6-6-----------------------------------------------------|
|----------------------7-7-7-7-7-7-7-7-6-6-6-6-6-6-4-4-4-4-3-3-3-3-4-4-4-4-|

Verse

|----------------------------|
|----------------------------|
|----------7---7\5-----------|
|--6-------5---5\3---------6-|
|--4----0------------------4-|
|--4----0--------------0-0-4-|
        *              * *
Palm mute

|--------------------------------------------------------|
|--------------------------------------------------------|
|--------------------------------------------------------|
|-----------------5----------------6-----------------5---|
|--------------------------------------------------------|
|-3-3-3-3-3-3-3-3--3-3-3-3-3-3-3-3--3-3-3-3-3-3-3-3------|
  * * * * * * * *  * * * * * * * *  * * * * * * * *

                                                                           Natural Harmonics
|--------------------------------------------------------------------------3*------|
|---------------------------------------------------------------------------3*-----|
|-----------------------------------------------------------------------------3*---|
|-5-----------------------------------------5----------------------------------3*5-|
|-5---------------8h10p8---6h8p6---5h65-----5------------------------------------5-|
|-3---3-3-3-3-3-3---------------------------3-----3-3-3-3-3-3--5^-3-3-3-3-3------3-|
      * * * * * *                                 * * * * * *     * * * * *

With Wah
|-------------------------------------|
|-------------------------------------|
|--6-------7-------9-------10---------|
|--6-------7-------9-------10---------|
|--4-------5-------7-------8----------|
|--4-------5-------7-------8----------|
Добавлено: 17.10.2013
Вам также может быть интересно:
Другие материалы по этой песне:
  • Аккорды и текст

Страница создана 17.10.2013
http://primanota.ru/cavalera-conspiracy/dark-ark-chords.htm
Привет, Гость.
Предлагаем пройти революционный курс по гитаре.
Подарок от PrimaNota.Ru, забирай!