PrimaNota.ru - самый крупный в мире бесплатный архив песенных текстов, аккордов, табулатур и нот


Causa Sui - Eugenie - бас-таба, видео

Регистрация Запомнить меня
Войти через:  Facebook Google Twitter Vk Yandex Mail.ru

Causa Sui - Eugenie - бас-таба, видео

Печатать
Просмотров: 131
While the bass isn't complicated and very repetitive, it is still a great 
psychedelic song to play. 

BPM: 102

PART A:
     Q    Q    E  E  Q       Q    Q    E  E  Q       Q    Q    E  E  Q     
G||-----------------------|-----------------------|-----------------------|
D||-----------------------|-----------------------|-----------------------|
A||--3---------3--1--3----|--L---------1--3--1----|--1---------3--1--3----|
E||-------3---------------|-------3---------------|-------3---------------|


  Q    Q    E  E  Q       
-----------------------|
-----------------------|
--L---------3--1--3----|
-------3---------------|

PART B (5:32)

  Q    Q    E   E  E  E     E  E  E  E  Q    E  E  
-------------------------|-------------------------|
-------------------------|--------------1----------|
--3----3--------------1--|--L-----1----------3--1--|
------------1h--3--3-----|-----3-----3-------------|


http://www.causasui.com/


Duration Legend
---------------
W - whole
H - half
Q - quarter
E - 8th
S - 16th
T - 32nd
X - 64th
. - note dotted
|-n-|  - n-tuplets


Tablature Legend
----------------
L - tied note

h - hammer on
p - pull off
Добавлено: 25.11.2013
Другие материалы по этой песне:
  • Аккорды и текст

Страница создана 25.11.2013
http://primanota.ru/causa-sui/eugenie-chords.htm
Привет, Гость.
Предлагаем пройти революционный курс по гитаре.
Подарок от PrimaNota.Ru, забирай!