PrimaNota.ru - самый крупный в мире бесплатный архив песенных текстов, аккордов, табулатур и нот


Cauldron - Summoned To Succumb - таба, видео

Регистрация Запомнить меня
Войти через:  Facebook Google Twitter Vk Yandex Mail.ru

Cauldron - Summoned To Succumb - таба, видео

Печатать
Просмотров: 91
Tune: C (down 2 step)

Intro:

PM----------------------------
C|----------------------------|
G|----------------------------|
Eb|---------------------------|
Bb|-2--2--2--2--2--2--2--2----|
F|--0--0--0--0--0--0--0--0----|
C|----------------------------|

PM----------------------------
C|----------------------------|
G|----------------------------|
Eb|---------------------------|
Bb|-------------5--5----------|
F|--3--3--3--3--3--3--5--5----|
C|--1--1--1--1--------3--3----|

PM----------------------------
C|----------------------------|
G|----------------------------|
Eb|---------------------------|
Bb|---------------------------|
F|--3--3--3--3--3--3--3--3----|
C|--1--1--1--1--1--1--1--1----|

PM----------------------------
C|----------------------------|
G|----------------------------|
Eb|---------------------------|
Bb|---------------------------|
F|--2--2--2--2--5--5--5--5----|
C|--0--0--0--0--3--3--3--3----|

PM----------------------------
C|----------------------------|
G|----------------------------|
Eb|---------------------------|
Bb|-2--2--2--2--2--2--2--2----|
F|--0--0--0--0--0--0--0--0----|
C|----------------------------|

PM----------------------------
C|----------------------------|
G|----------------------------|
Eb|---------------------------|
Bb|-------------5--5----------|
F|--3--3--3--3--3--3--5--5----|
C|--1--1--1--1--------3--3----|

PM----------------------------
C|----------------------------|
G|----------------------------|
Eb|---------------------------|
Bb|-7--7--7--7--7--7--7--7----|
F|--5--5--5--5--5--5--5--5----|
C|----------------------------|

PM----------------------------
C|----------------------------|
G|----------------------------|
Eb|---------------------------|
Bb|-5--5--5--5----------------|
F|--3--3--3--3--5--5--5--5----|
C|--------------3--3--3--3----|

harmonic thing:

  PM------------------------------------
C|------------------------------------|
G|----------10------12--10------13----|
Eb|-----12------12----------12--------|
Bb|-15--------------------------------|
F|------------------------------------|
C|------------------------------------|

  PM------------------------------------
C|------------------------------------|
G|--(13)--12----10------12----13------|
Eb|-----------------12----------------|
Bb|-----------------------------------|
F|------------------------------------|
C|------------------------------------|

PM------------------------------------
C|------------------------------------|
G|----------10------12--10------13----|
Eb|-----12------12----------12--------|
Bb|-15--------------------------------|
F|------------------------------------|
C|------------------------------------|

  PM--------------------------------------
C|--------------------------------------|
G|--(13)--12----10--13--12--12-13-12----|
Eb|----------------------------------14-|
Bb|-------------------------------------|
F|--------------------------------------|
C|--------------------------------------|
                      ~end is not 100% correct, sorry~



RIFF

   PM----       PM      PM PM       PM
C|----------------------------------------------|  
G|----------------------------------------------|  
Eb|-------5-------4------------7--------5-------| 
Bb|-------7-------5------------9--------7-------|  
F|--0--0-------0---------0--0--------0----------|  
C|----------------------------------------------|  
   
   PM------------
C|------------------------------------------------|
G|------------------------------------------------|
Eb|----------------9--7-----10----9-----9---------|
Bb|---------------10--9-----12----10----10--------|
F|--0--0--0--0--0---------------------------------|
C|------------------------------------------------|

3x, then, this:


   PM----       PM      PM PM       PM
C|----------------------------------------------|  
G|----------------------------------------------|  
Eb|-------5-------4------------7----------------| 
Bb|-------7-------5------------9--------10------|  
F|--0--0-------0---------0--0--------0--8-------|  
C|----------------------------------------------|  
   

C|------------------------------------------------|
G|------------------------------------------------|
Eb|-----------------------------------------------|
Bb|-10---------9----9---9--10-10-10---------------|
F|--8----------8----8---8---8--8--8---------------|
C|------------------------------------------------|


VERSE RIFF

C|------------------------------------------------|
G|------------------------------------------------|
Eb|-----------------------------------------------|
Bb|--2-----------------------------10--10--9--10---|
F|---0--0--0--0--0--0--0--0--0-----8---8---8--8----|
C|------------------------------------------------|

2x, then, this:

C|-----------------------------------------------------|
G|-----------------------------------------------------|
Eb|----------------------------------------------------|
Bb|-2--------------------------10/-12--11--10---9--10--|
F|--0--0--0--0--0--0--0--0--0--8/--10--10--8----8--8---|
C|-----------------------------------------------------|

Riff - "No more tries, no more lies (...)...."

C|---------------------------------|  
G|---------------------------------|  
Eb|--5-------4---------------------| 
Bb|--7-------5--------5------------|  
F|--------------------7------------|  
C|---------------------------------|  

C|---------------------------------|  
G|---------------------------------|  
Eb|--5-------4--------2------------| 
Bb|--7-------5--------3------------|  
F|---------------------------------|  
C|---------------------------------|

C|---------------------------------|  
G|---------------------------------|  
Eb|--5-------4---------------------| 
Bb|--7-------5--------7------------|  
F|--------------------5------------|  
C|---------------------------------|

C|---------------------------------|  
G|---------------------------------|  
Eb|--5-------4--------2------------| 
Bb|--7-------5--------3------------|  
F|---------------------------------|  
C|---------------------------------|

Solo rythm riff:

PM----       PM      PM PM       PM
C|----------------------------------------------|  
G|----------------------------------------------|  
Eb|-------5-------4------------7--------5-------| 
Bb|-------7-------5------------9--------7-------|  
F|--0--0-------0---------0--0--------0----------|  
C|----------------------------------------------|  
   
   PM------------
C|------------------------------------------------|
G|------------------------------------------------|
Eb|----------------9--7-----10----9-----9---------|
Bb|---------------10--9-----12----10----10--------|
F|--0--0--0--0--0---------------------------------|
C|------------------------------------------------|

3x, then, this:


   PM----       PM      PM PM       PM
C|----------------------------------------------|  
G|----------------------------------------------|  
Eb|-------5-------4------------7----------------| 
Bb|-------7-------5------------9--------10------|  
F|--0--0-------0---------0--0--------0--8-------|  
C|----------------------------------------------|  
   

C|------------------------------------------------|
G|------------------------------------------------|
Eb|-----------------------------------------------|
Bb|-10---------9----9---9--10-10-10---------------|
F|--8----------8----8---8---8--8--8---------------|
C|------------------------------------------------|

play the song with this riffs!

*The solo is easy, but I don't have the tab, maybe I'll make it someday haha!
Добавлено: 26.06.2016
Другие материалы по этой песне:
  • Аккорды и текст

Страница создана 26.06.2016
http://primanota.ru/cauldron/summoned-to-succumb-chords.htm
Привет, Гость.
Предлагаем пройти революционный курс по гитаре.
Подарок от PrimaNota.Ru, забирай!