PrimaNota.ru - самый крупный в мире бесплатный архив песенных текстов, аккордов, табулатур и нот


Catupecu Machu - Magia Veneno - аккорды и текст, таба, бас-таба, видео

Регистрация Запомнить меня
Войти через:  Facebook Google Twitter Vk Yandex Mail.ru

Catupecu Machu - Magia Veneno - аккорды и текст, таба, бас-таба, видео

Печатать
Просмотров: 206
Magia Veneno
Catupecu Machu
-------------------------------------------------------------------------------
                             MAGIA VENENO - Catupecu Machu
-------------------------------------------------------------------------------
Tabbed by: Valentin Db
E-mail: valeendelbene@gmail.com


e|--------------|----------|--------|---------------------------|
B|--------------|----------|--------|---------------------------|
G|--------------|----6-7-9-|--6-----|---------------------------|
D|---------9-7--|--9-------|----9---|---------------------------|
A|-------7------|----------|--------|---------------------------|
E|--------------|----------|--------|---------------------------|


e|-------------------|----------------------|
b|-------------------|----------------------|
G|-------------------|----------------------|
D|--7-7-7-7-7-7------|-----7-7-7-7-7-7------|
A|--7-7-7-7-7-7------|-----7-7-7-7-7-7------|
E|--5-5-5-5-5-5------|-----4-4-4-4-4-4------|

e|-------------------|----------------------|
b|-------------------|----------------------|
G|-------------------|----------------------|
D|--9-9-9-9-9-9------|-----4-4-4-4-4-4------|
A|--9-9-9-9-9-9------|-----4-4-4-4-4-4------|
E|--7-7-7-7-7-7------|-----2-2-2-2-2-2------|

Así toda la canción ;)

Saludos!
Добавлено: 31.07.2014
Другие материалы по этой песне:

Страница создана 12.04.2012
http://primanota.ru/catupecu-machu/magia-veneno-chords.htm
Привет, Гость.
Предлагаем пройти революционный курс по гитаре.
Подарок от PrimaNota.Ru, забирай!